ISO-10303-21;
HEADER;
FILE_DESCRIPTION (( 'STEP AP214' ),
    '1' );
FILE_NAME ('SP4020.STEP',
    '2025-04-18T19:22:00',
    ( '' ),
    ( '' ),
    'SwSTEP 2.0',
    'SolidWorks 2023',
    '' );
FILE_SCHEMA (( 'AUTOMOTIVE_DESIGN' ));
ENDSEC;

DATA;
#1 = PRODUCT_CONTEXT ( 'NONE', #35, 'mechanical' ) ;
#2 = CARTESIAN_POINT ( 'NONE',  ( -0.5039488593908130198, 0.06250000000000000000, -0.09008287984029457462 ) ) ;
#3 =( NAMED_UNIT ( * ) SI_UNIT ( $, .STERADIAN. ) SOLID_ANGLE_UNIT ( ) );
#4 = FILL_AREA_STYLE ('',( #101 ) ) ;
#5 = AXIS2_PLACEMENT_3D ( 'NONE', #192, #294, #164 ) ;
#6 = CARTESIAN_POINT ( 'NONE',  ( 0.5742115490348450590, 0.06250000000000001388, -0.1400056438311623463 ) ) ;
#7 = VECTOR ( 'NONE', #321, 39.37007874015748143 ) ;
#8 = CARTESIAN_POINT ( 'NONE',  ( -0.5475396841029118722, 0.06250000000000001388, -2.171991344747508546 ) ) ;
#9 = CARTESIAN_POINT ( 'NONE',  ( -0.5039488593908132419, 0.06250000000000000000, -2.209917120159705206 ) ) ;
#10 = LINE ( 'NONE', #156, #32 ) ;
#11 = CARTESIAN_POINT ( 'NONE',  ( 0.000000000000000000, 0.000000000000000000, -2.299999999999999822 ) ) ;
#12 = DIRECTION ( 'NONE',  ( 0.000000000000000000, 0.000000000000000000, -1.000000000000000000 ) ) ;
#13 = EDGE_CURVE ( 'NONE', #269, #315, #267, .T. ) ;
#14 = PRODUCT_DEFINITION_FORMATION_WITH_SPECIFIED_SOURCE ( 'ANY', '', #153, .NOT_KNOWN. ) ;
#15 = CARTESIAN_POINT ( 'NONE',  ( -0.6218671481916375754, 0.06250000000000000000, -2.152500000000000302 ) ) ;
#16 = ORIENTED_EDGE ( 'NONE', *, *, #13, .F. ) ;
#17 = DIRECTION ( 'NONE',  ( -1.000000000000000000, 0.000000000000000000, 0.000000000000000000 ) ) ;
#18 = ORIENTED_EDGE ( 'NONE', *, *, #196, .T. ) ;
#19 = LINE ( 'NONE', #292, #134 ) ;
#20 = ORIENTED_EDGE ( 'NONE', *, *, #209, .T. ) ;
#21 = DIRECTION ( 'NONE',  ( -1.000000000000000000, 0.000000000000000000, 0.000000000000000000 ) ) ;
#22 = UNCERTAINTY_MEASURE_WITH_UNIT (LENGTH_MEASURE( 1.000000000000000082E-05 ), #150, 'distance_accuracy_value', 'NONE');
#23 = ORIENTED_EDGE ( 'NONE', *, *, #184, .T. ) ;
#24 = CARTESIAN_POINT ( 'NONE',  ( -0.4330127018922192428, 0.06250000000000000000, -2.299999999999999822 ) ) ;
#25 = ORIENTED_EDGE ( 'NONE', *, *, #184, .F. ) ;
#26 =( NAMED_UNIT ( * ) PLANE_ANGLE_UNIT ( ) SI_UNIT ( $, .RADIAN. ) );
#27 = PRESENTATION_STYLE_ASSIGNMENT (( #183 ) ) ;
#28 = B_SPLINE_CURVE_WITH_KNOTS ( 'NONE', 3,
 ( #79, #300, #132, #279, #155, #225, #277, #250, #178, #133, #231, #6, #185, #31, #233, #60 ),
 .UNSPECIFIED., .F., .F.,
 ( 4, 2, 2, 2, 2, 2, 2, 4 ),
 ( 0.02212325236329519204, 0.02359102964507546821, 0.02432491828596560976, 0.02505880692685574784, 0.02579269556774588593, 0.02652658420863602401, 0.02726047284952616209, 0.02799436149041630018 ),
 .UNSPECIFIED. ) ;
#29 = APPLICATION_PROTOCOL_DEFINITION ( 'draft international standard', 'automotive_design', 1998, #35 ) ;
#30 = EDGE_CURVE ( 'NONE', #174, #273, #98, .T. ) ;
#31 = CARTESIAN_POINT ( 'NONE',  ( 0.6026138626113071162, 0.06250000000000001388, -0.1465731843028721670 ) ) ;
#32 = VECTOR ( 'NONE', #286, 39.37007874015748143 ) ;
#33 = CARTESIAN_POINT ( 'NONE',  ( -0.4810128589905902641, 0.06249999999999999306, -2.252399891794441000 ) ) ;
#34 = CARTESIAN_POINT ( 'NONE',  ( 0.000000000000000000, 0.000000000000000000, 0.000000000000000000 ) ) ;
#35 = APPLICATION_CONTEXT ( 'automotive_design' ) ;
#36 = CARTESIAN_POINT ( 'NONE',  ( -0.4743701443827836872, 0.06250000000000001388, -2.280548227294468600 ) ) ;
#37 = CIRCLE ( 'NONE', #117, 0.4375000000000000000 ) ;
#38 = FACE_OUTER_BOUND ( 'NONE', #216, .T. ) ;
#39 = CARTESIAN_POINT ( 'NONE',  ( 0.5563809859661402735, 0.06250000000000001388, -2.167306874947938944 ) ) ;
#40 = CARTESIAN_POINT ( 'NONE',  ( 0.4733920151417850275, 0.06250000000000000000, -2.300000000000000266 ) ) ;
#41 = ORIENTED_EDGE ( 'NONE', *, *, #30, .T. ) ;
#42 = TOROIDAL_SURFACE ( 'NONE', #226, 0.6250000000000000000, 0.1475000000000000200 ) ;
#43 = DIRECTION ( 'NONE',  ( -0.000000000000000000, 0.000000000000000000, -1.000000000000000000 ) ) ;
#44 = EDGE_LOOP ( 'NONE', ( #313, #68, #243, #171 ) ) ;
#45 = CARTESIAN_POINT ( 'NONE',  ( 0.5240608283978950288, 0.06250000000000001388, -2.188662219726960068 ) ) ;
#46 = ORIENTED_EDGE ( 'NONE', *, *, #57, .T. ) ;
#47 = LINE ( 'NONE', #24, #173 ) ;
#48 = VERTEX_POINT ( 'NONE', #280 ) ;
#49 = CIRCLE ( 'NONE', #186, 0.6250000000000000000 ) ;
#50 = VERTEX_POINT ( 'NONE', #152 ) ;
#51 = ADVANCED_FACE ( 'NONE', ( #128 ), #105, .F. ) ;
#52 = PRODUCT_DEFINITION_CONTEXT ( 'detailed design', #115, 'design' ) ;
#53 = CARTESIAN_POINT ( 'NONE',  ( -0.5835664330344764172, 0.06250000000000000000, -0.1428221469942433930 ) ) ;
#54 =( GEOMETRIC_REPRESENTATION_CONTEXT ( 3 ) GLOBAL_UNCERTAINTY_ASSIGNED_CONTEXT ( ( #22 ) ) GLOBAL_UNIT_ASSIGNED_CONTEXT ( ( #150, #130, #3 ) ) REPRESENTATION_CONTEXT ( 'NONE', 'WORKASPACE' ) );
#55 = CARTESIAN_POINT ( 'NONE',  ( -0.6218671481916373533, 0.06250000000000000000, -0.1474999999999999922 ) ) ;
#56 = CARTESIAN_POINT ( 'NONE',  ( 0.000000000000000000, 0.000000000000000000, 0.000000000000000000 ) ) ;
#57 = EDGE_CURVE ( 'NONE', #50, #174, #305, .T. ) ;
#58 = LINE ( 'NONE', #285, #159 ) ;
#59 = VECTOR ( 'NONE', #75, 39.37007874015748143 ) ;
#60 = CARTESIAN_POINT ( 'NONE',  ( 0.6218671481916373533, 0.06250000000000000000, -0.1474999999999999922 ) ) ;
#61 = ADVANCED_BREP_SHAPE_REPRESENTATION ( 'SP4020', ( #83, #307 ), #54 ) ;
#62 = CARTESIAN_POINT ( 'NONE',  ( -0.6122140916100302643, 0.06250000000000000000, -2.152499999999999858 ) ) ;
#63 = CARTESIAN_POINT ( 'NONE',  ( -0.6218671481916375754, 0.06250000000000000000, -2.152500000000000302 ) ) ;
#64 = AXIS2_PLACEMENT_3D ( 'NONE', #198, #43, #168 ) ;
#65 = FACE_OUTER_BOUND ( 'NONE', #220, .T. ) ;
#66 = B_SPLINE_CURVE_WITH_KNOTS ( 'NONE', 3,
 ( #63, #62, #304, #188, #236, #255, #8, #111, #158, #258, #9, #86, #162, #33, #187, #36, #160, #137 ),
 .UNSPECIFIED., .F., .F.,
 ( 4, 2, 2, 2, 2, 2, 2, 2, 4 ),
 ( 0.02180399966908437570, 0.02253792192941952294, 0.02327184418975467017, 0.02400576645008981394, 0.02473968871042496118, 0.02547361097076010841, 0.02620753323109525218, 0.02694145549143039942, 0.02767537775176554665 ),
 .UNSPECIFIED. ) ;
#67 = CARTESIAN_POINT ( 'NONE',  ( 0.4886136179724154815, 0.06250000000000000000, -2.234277852342097859 ) ) ;
#68 = ORIENTED_EDGE ( 'NONE', *, *, #201, .T. ) ;
#69 = DIRECTION ( 'NONE',  ( 0.000000000000000000, 0.000000000000000000, -1.000000000000000000 ) ) ;
#70 = EDGE_LOOP ( 'NONE', ( #191, #46, #18, #144 ) ) ;
#71 = CARTESIAN_POINT ( 'NONE',  ( 0.5040193624831542651, 0.06249999999999999306, -2.209824752128704883 ) ) ;
#72 = ORIENTED_EDGE ( 'NONE', *, *, #112, .F. ) ;
#73 = LINE ( 'NONE', #244, #249 ) ;
#74 = ORIENTED_EDGE ( 'NONE', *, *, #196, .F. ) ;
#75 = DIRECTION ( 'NONE',  ( 1.000000000000000000, -0.000000000000000000, -0.000000000000000000 ) ) ;
#76 = TOROIDAL_SURFACE ( 'NONE', #242, 0.6250000000000000000, 0.1475000000000000200 ) ;
#77 = LENGTH_MEASURE_WITH_UNIT ( LENGTH_MEASURE( 0.02539999999999999897 ), #100 );
#78 = DIRECTION ( 'NONE',  ( 0.000000000000000000, 0.000000000000000000, 1.000000000000000000 ) ) ;
#79 = CARTESIAN_POINT ( 'NONE',  ( 0.4733920151417851385, 0.06250000000000000000, 0.000000000000000000 ) ) ;
#80 = AXIS2_PLACEMENT_3D ( 'NONE', #257, #12, #21 ) ;
#81 = CARTESIAN_POINT ( 'NONE',  ( -0.5741807075910781988, 0.06250000000000001388, -0.1400014331603718909 ) ) ;
#82 = DIRECTION ( 'NONE',  ( 0.000000000000000000, 0.000000000000000000, -1.000000000000000000 ) ) ;
#83 = MANIFOLD_SOLID_BREP ( 'Cut-Extrude1', #90 ) ;
#84 = EDGE_CURVE ( 'NONE', #315, #218, #28, .T. ) ;
#85 = LINE ( 'NONE', #282, #221 ) ;
#86 = CARTESIAN_POINT ( 'NONE',  ( -0.4931676841433261793, 0.06249999999999999306, -2.225883827124424563 ) ) ;
#87 = CARTESIAN_POINT ( 'NONE',  ( 0.000000000000000000, 0.000000000000000000, -2.152500000000000302 ) ) ;
#88 = DIRECTION ( 'NONE',  ( -1.000000000000000000, 0.000000000000000000, 0.000000000000000000 ) ) ;
#89 = ADVANCED_FACE ( 'NONE', ( #113 ), #76, .F. ) ;
#90 = CLOSED_SHELL ( 'NONE', ( #177, #206, #276, #51, #264, #89, #120, #319 ) ) ;
#91 = DIRECTION ( 'NONE',  ( 0.000000000000000000, 0.000000000000000000, 1.000000000000000000 ) ) ;
#92 = ORIENTED_EDGE ( 'NONE', *, *, #57, .F. ) ;
#93 = ORIENTED_EDGE ( 'NONE', *, *, #230, .F. ) ;
#94 = CARTESIAN_POINT ( 'NONE',  ( 0.000000000000000000, 0.000000000000000000, -2.300000000000000266 ) ) ;
#95 = EDGE_LOOP ( 'NONE', ( #245, #166, #20, #291, #197, #16 ) ) ;
#96 = DIRECTION ( 'NONE',  ( 1.000000000000000000, 0.000000000000000000, 0.000000000000000000 ) ) ;
#97 = CARTESIAN_POINT ( 'NONE',  ( 0.4733920151417851385, 0.06250000000000000000, 0.000000000000000000 ) ) ;
#98 = LINE ( 'NONE', #199, #59 ) ;
#99 = CARTESIAN_POINT ( 'NONE',  ( -0.6026229125096587147, 0.06250000000000000000, -0.1465708077586171387 ) ) ;
#100 =( LENGTH_UNIT ( ) NAMED_UNIT ( * ) SI_UNIT ( $, .METRE. ) );
#101 = FILL_AREA_STYLE_COLOUR ( '', #175 ) ;
#102 = EDGE_CURVE ( 'NONE', #146, #218, #10, .T. ) ;
#103 =( LENGTH_UNIT ( ) NAMED_UNIT ( * ) SI_UNIT ( $, .METRE. ) );
#104 = DIRECTION ( 'NONE',  ( -0.000000000000000000, 0.000000000000000000, -1.000000000000000000 ) ) ;
#105 = PLANE ( 'NONE',  #167 ) ;
#106 = CIRCLE ( 'NONE', #274, 0.4775000000000000355 ) ;
#107 = CARTESIAN_POINT ( 'NONE',  ( -0.6250000000000000000, 0.06250000000000000000, 0.000000000000000000 ) ) ;
#108 = CARTESIAN_POINT ( 'NONE',  ( 0.6218671481916375754, 0.06250000000000000000, -2.152500000000000302 ) ) ;
#109 = DIRECTION ( 'NONE',  ( -0.000000000000000000, -0.000000000000000000, -1.000000000000000000 ) ) ;
#110 = DIMENSIONAL_EXPONENTS ( 1.000000000000000000, 0.000000000000000000, 0.000000000000000000, 0.000000000000000000, 0.000000000000000000, 0.000000000000000000, 0.000000000000000000 ) ;
#111 = CARTESIAN_POINT ( 'NONE',  ( -0.5314775581064454801, 0.06249999999999999306, -2.182640498513671812 ) ) ;
#112 = EDGE_CURVE ( 'NONE', #50, #297, #58, .T. ) ;
#113 = FACE_OUTER_BOUND ( 'NONE', #271, .T. ) ;
#114 = PLANE ( 'NONE',  #157 ) ;
#115 = APPLICATION_CONTEXT ( 'automotive_design' ) ;
#116 = ORIENTED_EDGE ( 'NONE', *, *, #13, .T. ) ;
#117 = AXIS2_PLACEMENT_3D ( 'NONE', #34, #109, #136 ) ;
#118 = CARTESIAN_POINT ( 'NONE',  ( 0.5103088940595880141, 0.06249999999999999306, -2.202250680772748215 ) ) ;
#119 = ORIENTED_EDGE ( 'NONE', *, *, #138, .T. ) ;
#120 = ADVANCED_FACE ( 'NONE', ( #234 ), #287, .F. ) ;
#121 = CARTESIAN_POINT ( 'NONE',  ( 0.000000000000000000, 0.000000000000000000, -8.537024980200822558E-18 ) ) ;
#122 = ORIENTED_EDGE ( 'NONE', *, *, #201, .F. ) ;
#123 = CARTESIAN_POINT ( 'NONE',  ( 0.4932120677313118762, 0.06250000000000001388, -2.225806177697286170 ) ) ;
#124 = ORIENTED_EDGE ( 'NONE', *, *, #230, .T. ) ;
#125 = DIRECTION ( 'NONE',  ( 0.000000000000000000, 0.000000000000000000, 1.000000000000000000 ) ) ;
#126 = CARTESIAN_POINT ( 'NONE',  ( -0.6250000000000000000, 0.06250000000000000000, 0.000000000000000000 ) ) ;
#127 = LENGTH_MEASURE_WITH_UNIT ( LENGTH_MEASURE( 0.02539999999999999897 ), #103 );
#128 = FACE_OUTER_BOUND ( 'NONE', #223, .T. ) ;
#129 = SHAPE_DEFINITION_REPRESENTATION ( #303, #61 ) ;
#130 =( NAMED_UNIT ( * ) PLANE_ANGLE_UNIT ( ) SI_UNIT ( $, .RADIAN. ) );
#131 =( NAMED_UNIT ( * ) SI_UNIT ( $, .STERADIAN. ) SOLID_ANGLE_UNIT ( ) );
#132 = CARTESIAN_POINT ( 'NONE',  ( 0.4773063513447497463, 0.06250000000000000000, -0.03882093842596173738 ) ) ;
#133 = CARTESIAN_POINT ( 'NONE',  ( 0.5477048793231622525, 0.06249999999999999306, -0.1281074842273391967 ) ) ;
#134 = VECTOR ( 'NONE', #145, 39.37007874015748143 ) ;
#135 = CYLINDRICAL_SURFACE ( 'NONE', #232, 0.6250000000000000000 ) ;
#136 = DIRECTION ( 'NONE',  ( -1.000000000000000000, 0.000000000000000000, 0.000000000000000000 ) ) ;
#137 = CARTESIAN_POINT ( 'NONE',  ( -0.4733920151417850275, 0.06250000000000000000, -2.299999999999999822 ) ) ;
#138 = EDGE_CURVE ( 'NONE', #273, #269, #37, .T. ) ;
#139 = FACE_OUTER_BOUND ( 'NONE', #293, .T. ) ;
#140 = EDGE_CURVE ( 'NONE', #297, #48, #66, .T. ) ;
#141 = CARTESIAN_POINT ( 'NONE',  ( 0.6218671481916373533, 0.06250000000000000000, -0.1474999999999999922 ) ) ;
#142 = VERTEX_POINT ( 'NONE', #237 ) ;
#143 = CIRCLE ( 'NONE', #80, 0.4775000000000000355 ) ;
#144 = ORIENTED_EDGE ( 'NONE', *, *, #84, .T. ) ;
#145 = DIRECTION ( 'NONE',  ( -0.000000000000000000, -0.000000000000000000, -1.000000000000000000 ) ) ;
#146 = VERTEX_POINT ( 'NONE', #108 ) ;
#147 = CARTESIAN_POINT ( 'NONE',  ( -0.4330127018922192983, 0.06250000000000000000, 0.000000000000000000 ) ) ;
#148 = ORIENTED_EDGE ( 'NONE', *, *, #140, .T. ) ;
#149 = STYLED_ITEM ( 'NONE', ( #27 ), #83 ) ;
#150 =( CONVERSION_BASED_UNIT ( 'INCH', #127 ) LENGTH_UNIT ( ) NAMED_UNIT ( #211 ) );
#151 = ORIENTED_EDGE ( 'NONE', *, *, #209, .F. ) ;
#152 = CARTESIAN_POINT ( 'NONE',  ( -0.6218671481916373533, 0.06250000000000000000, -0.1474999999999999922 ) ) ;
#153 = PRODUCT ( 'SP4020', 'SP4020', '', ( #1 ) ) ;
#154 = CARTESIAN_POINT ( 'NONE',  ( -0.4885010811000521924, 0.06249999999999999306, -0.06549252258151523620 ) ) ;
#155 = CARTESIAN_POINT ( 'NONE',  ( 0.4932120677313118207, 0.06250000000000001388, -0.07419382230271449885 ) ) ;
#156 = CARTESIAN_POINT ( 'NONE',  ( 0.6218671481916373533, 0.06250000000000000000, -2.299999999999999822 ) ) ;
#157 = AXIS2_PLACEMENT_3D ( 'NONE', #190, #213, #310 ) ;
#158 = CARTESIAN_POINT ( 'NONE',  ( -0.5239817627898929464, 0.06250000000000001388, -2.188722305122465794 ) ) ;
#159 = VECTOR ( 'NONE', #302, 39.37007874015748143 ) ;
#160 = CARTESIAN_POINT ( 'NONE',  ( -0.4733920151417850275, 0.06250000000000001388, -2.290350070910616598 ) ) ;
#161 = DIRECTION ( 'NONE',  ( 0.000000000000000000, -0.000000000000000000, 1.000000000000000000 ) ) ;
#162 = CARTESIAN_POINT ( 'NONE',  ( -0.4885010811000524700, 0.06250000000000000000, -2.234507477418484545 ) ) ;
#163 = CARTESIAN_POINT ( 'NONE',  ( 0.5834528673157618472, 0.06250000000000000000, -2.157204376342988894 ) ) ;
#164 = DIRECTION ( 'NONE',  ( -1.000000000000000000, 0.000000000000000000, 0.000000000000000000 ) ) ;
#165 = DIRECTION ( 'NONE',  ( 0.000000000000000000, 0.000000000000000000, -1.000000000000000000 ) ) ;
#166 = ORIENTED_EDGE ( 'NONE', *, *, #172, .T. ) ;
#167 = AXIS2_PLACEMENT_3D ( 'NONE', #56, #104, #254 ) ;
#168 = DIRECTION ( 'NONE',  ( -1.000000000000000000, 0.000000000000000000, 0.000000000000000000 ) ) ;
#169 = ORIENTED_EDGE ( 'NONE', *, *, #102, .F. ) ;
#170 = FACE_OUTER_BOUND ( 'NONE', #44, .T. ) ;
#171 = ORIENTED_EDGE ( 'NONE', *, *, #138, .F. ) ;
#172 = EDGE_CURVE ( 'NONE', #193, #289, #85, .T. ) ;
#173 = VECTOR ( 'NONE', #125, 39.37007874015748143 ) ;
#174 = VERTEX_POINT ( 'NONE', #256 ) ;
#175 = COLOUR_RGB ( '',0.7921568627450980005, 0.8196078431372548767, 0.9333333333333333481 ) ;
#176 = SURFACE_STYLE_FILL_AREA ( #4 ) ;
#177 = ADVANCED_FACE ( 'NONE', ( #38 ), #135, .T. ) ;
#178 = CARTESIAN_POINT ( 'NONE',  ( 0.5315389237552848867, 0.06250000000000000000, -0.1174107329727846066 ) ) ;
#179 = CARTESIAN_POINT ( 'NONE',  ( -0.4781897006649091231, 0.06250000000000001388, -0.03839109385639753735 ) ) ;
#180 = AXIS2_PLACEMENT_3D ( 'NONE', #107, #306, #161 ) ;
#181 = DIRECTION ( 'NONE',  ( 1.000000000000000000, 0.000000000000000000, 0.000000000000000000 ) ) ;
#182 = CARTESIAN_POINT ( 'NONE',  ( -0.4733920151417850275, 0.06250000000000001388, -0.009649929089383375500 ) ) ;
#183 = SURFACE_STYLE_USAGE ( .BOTH. , #203 ) ;
#184 = EDGE_CURVE ( 'NONE', #297, #146, #266, .T. ) ;
#185 = CARTESIAN_POINT ( 'NONE',  ( 0.5834528673157615142, 0.06249999999999999306, -0.1427956236570114557 ) ) ;
#186 = AXIS2_PLACEMENT_3D ( 'NONE', #247, #69, #17 ) ;
#187 = CARTESIAN_POINT ( 'NONE',  ( -0.4781897006649091231, 0.06250000000000000000, -2.261608906143602660 ) ) ;
#188 = CARTESIAN_POINT ( 'NONE',  ( -0.5835664330344764172, 0.06249999999999997918, -2.157177853005756596 ) ) ;
#189 = MECHANICAL_DESIGN_GEOMETRIC_PRESENTATION_REPRESENTATION (  '', ( #149 ), #317 ) ;
#190 = CARTESIAN_POINT ( 'NONE',  ( -0.6250000000000000000, 0.06250000000000000000, 0.000000000000000000 ) ) ;
#191 = ORIENTED_EDGE ( 'NONE', *, *, #235, .F. ) ;
#192 = CARTESIAN_POINT ( 'NONE',  ( 0.000000000000000000, 0.000000000000000000, -2.299999999999999822 ) ) ;
#193 = VERTEX_POINT ( 'NONE', #238 ) ;
#194 = FACE_OUTER_BOUND ( 'NONE', #70, .T. ) ;
#195 = ORIENTED_EDGE ( 'NONE', *, *, #281, .T. ) ;
#196 = EDGE_CURVE ( 'NONE', #174, #315, #143, .T. ) ;
#197 = ORIENTED_EDGE ( 'NONE', *, *, #84, .F. ) ;
#198 = CARTESIAN_POINT ( 'NONE',  ( 0.000000000000000000, 0.000000000000000000, -2.299999999999999822 ) ) ;
#199 = CARTESIAN_POINT ( 'NONE',  ( -0.6250000000000000000, 0.06250000000000000000, 0.000000000000000000 ) ) ;
#200 = CARTESIAN_POINT ( 'NONE',  ( -0.4931676841433260683, 0.06250000000000001388, -0.07411617287557537015 ) ) ;
#201 = EDGE_CURVE ( 'NONE', #142, #193, #205, .T. ) ;
#202 = UNCERTAINTY_MEASURE_WITH_UNIT (LENGTH_MEASURE( 1.000000000000000082E-05 ), #227, 'distance_accuracy_value', 'NONE');
#203 = SURFACE_SIDE_STYLE ('',( #176 ) ) ;
#204 = CARTESIAN_POINT ( 'NONE',  ( -0.6122140916100300423, 0.06250000000000001388, -0.1475000000000000755 ) ) ;
#205 = CIRCLE ( 'NONE', #5, 0.4375000000000000000 ) ;
#206 = ADVANCED_FACE ( 'NONE', ( #65 ), #265, .T. ) ;
#207 = DIRECTION ( 'NONE',  ( 1.000000000000000000, -0.000000000000000000, -0.000000000000000000 ) ) ;
#208 = DIRECTION ( 'NONE',  ( 0.000000000000000000, 0.000000000000000000, 1.000000000000000000 ) ) ;
#209 = EDGE_CURVE ( 'NONE', #289, #146, #229, .T. ) ;
#210 = DIRECTION ( 'NONE',  ( 1.000000000000000000, 0.000000000000000000, 0.000000000000000000 ) ) ;
#211 = DIMENSIONAL_EXPONENTS ( 1.000000000000000000, 0.000000000000000000, 0.000000000000000000, 0.000000000000000000, 0.000000000000000000, 0.000000000000000000, 0.000000000000000000 ) ;
#212 = PRODUCT_RELATED_PRODUCT_CATEGORY ( 'part', '', ( #153 ) ) ;
#213 = DIRECTION ( 'NONE',  ( 0.000000000000000000, 1.000000000000000000, 0.000000000000000000 ) ) ;
#214 = ORIENTED_EDGE ( 'NONE', *, *, #140, .F. ) ;
#215 = CARTESIAN_POINT ( 'NONE',  ( 0.6122339464312818169, 0.06250000000000000000, -2.152500000000000302 ) ) ;
#216 = EDGE_LOOP ( 'NONE', ( #72, #295, #169, #25 ) ) ;
#217 = DIRECTION ( 'NONE',  ( 0.000000000000000000, 0.000000000000000000, -1.000000000000000000 ) ) ;
#218 = VERTEX_POINT ( 'NONE', #141 ) ;
#219 = CARTESIAN_POINT ( 'NONE',  ( 0.5477048793231623636, 0.06250000000000001388, -2.171892515772661181 ) ) ;
#220 = EDGE_LOOP ( 'NONE', ( #93, #246, #318, #122 ) ) ;
#221 = VECTOR ( 'NONE', #207, 39.37007874015748143 ) ;
#222 = CARTESIAN_POINT ( 'NONE',  ( 0.6026138626113072272, 0.06250000000000000000, -2.153426815697128571 ) ) ;
#223 = EDGE_LOOP ( 'NONE', ( #74, #41, #119, #116 ) ) ;
#224 = AXIS2_PLACEMENT_3D ( 'NONE', #316, #91, #96 ) ;
#225 = CARTESIAN_POINT ( 'NONE',  ( 0.5040193624831542651, 0.06250000000000001388, -0.09017524787129466146 ) ) ;
#226 = AXIS2_PLACEMENT_3D ( 'NONE', #121, #217, #314 ) ;
#227 =( CONVERSION_BASED_UNIT ( 'INCH', #77 ) LENGTH_UNIT ( ) NAMED_UNIT ( #110 ) );
#228 = CARTESIAN_POINT ( 'NONE',  ( -0.5239817627898925023, 0.06250000000000001388, -0.1112776948775341113 ) ) ;
#229 = B_SPLINE_CURVE_WITH_KNOTS ( 'NONE', 3,
 ( #40, #288, #261, #67, #123, #71, #118, #45, #262, #219, #39, #290, #163, #222, #215, #270 ),
 .UNSPECIFIED., .F., .F.,
 ( 4, 2, 2, 2, 2, 2, 2, 4 ),
 ( 0.02212325236329517469, 0.02359102964507546821, 0.02432491828596560282, 0.02505880692685574090, 0.02579269556774587552, 0.02652658420863601360, 0.02726047284952614821, 0.02799436149041628630 ),
 .UNSPECIFIED. ) ;
#230 = EDGE_CURVE ( 'NONE', #48, #142, #73, .T. ) ;
#231 = CARTESIAN_POINT ( 'NONE',  ( 0.5563809859661401624, 0.06250000000000000000, -0.1326931250520621830 ) ) ;
#232 = AXIS2_PLACEMENT_3D ( 'NONE', #11, #208, #210 ) ;
#233 = CARTESIAN_POINT ( 'NONE',  ( 0.6122339464312815949, 0.06250000000000001388, -0.1475000000000000755 ) ) ;
#234 = FACE_OUTER_BOUND ( 'NONE', #95, .T. ) ;
#235 = EDGE_CURVE ( 'NONE', #50, #218, #49, .T. ) ;
#236 = CARTESIAN_POINT ( 'NONE',  ( -0.5741807075910783098, 0.06250000000000001388, -2.159998566839628431 ) ) ;
#237 = CARTESIAN_POINT ( 'NONE',  ( -0.4330127018922192983, 0.06250000000000000000, -2.299999999999999822 ) ) ;
#238 = CARTESIAN_POINT ( 'NONE',  ( 0.4330127018922192983, 0.06250000000000000000, -2.299999999999999822 ) ) ;
#239 = EDGE_CURVE ( 'NONE', #48, #289, #106, .T. ) ;
#240 = CARTESIAN_POINT ( 'NONE',  ( 0.4733920151417850275, 0.06250000000000000000, -2.300000000000000266 ) ) ;
#241 = DIRECTION ( 'NONE',  ( 1.000000000000000000, -0.000000000000000000, -0.000000000000000000 ) ) ;
#242 = AXIS2_PLACEMENT_3D ( 'NONE', #308, #82, #88 ) ;
#243 = ORIENTED_EDGE ( 'NONE', *, *, #272, .F. ) ;
#244 = CARTESIAN_POINT ( 'NONE',  ( -0.6250000000000000000, 0.06250000000000000000, -2.299999999999999822 ) ) ;
#245 = ORIENTED_EDGE ( 'NONE', *, *, #272, .T. ) ;
#246 = ORIENTED_EDGE ( 'NONE', *, *, #239, .T. ) ;
#247 = CARTESIAN_POINT ( 'NONE',  ( 0.000000000000000000, 0.000000000000000000, -0.1474999999999999922 ) ) ;
#248 = ORIENTED_EDGE ( 'NONE', *, *, #30, .F. ) ;
#249 = VECTOR ( 'NONE', #241, 39.37007874015748143 ) ;
#250 = CARTESIAN_POINT ( 'NONE',  ( 0.5240608283978946957, 0.06249999999999999306, -0.1113377802730402405 ) ) ;
#251 = CARTESIAN_POINT ( 'NONE',  ( -0.4743701443827837982, 0.06250000000000001388, -0.01945177270553164264 ) ) ;
#252 = CARTESIAN_POINT ( 'NONE',  ( -0.5314775581064454801, 0.06250000000000001388, -0.1173595014863276637 ) ) ;
#253 = CARTESIAN_POINT ( 'NONE',  ( -0.4810128589905902086, 0.06250000000000001388, -0.04760010820555912042 ) ) ;
#254 = DIRECTION ( 'NONE',  ( -1.000000000000000000, 0.000000000000000000, 0.000000000000000000 ) ) ;
#255 = CARTESIAN_POINT ( 'NONE',  ( -0.5561890879443383007, 0.06249999999999999306, -2.167394117385149865 ) ) ;
#256 = CARTESIAN_POINT ( 'NONE',  ( -0.4733920151417849720, 0.06250000000000000000, 0.000000000000000000 ) ) ;
#257 = CARTESIAN_POINT ( 'NONE',  ( 0.000000000000000000, 0.000000000000000000, 1.855828545093437187E-17 ) ) ;
#258 = CARTESIAN_POINT ( 'NONE',  ( -0.5101081303241716824, 0.06249999999999999306, -2.202467465639503796 ) ) ;
#259 = DIRECTION ( 'NONE',  ( 0.000000000000000000, 0.000000000000000000, -1.000000000000000000 ) ) ;
#260 = PRODUCT_DEFINITION ( 'UNKNOWN', '', #14, #52 ) ;
#261 = CARTESIAN_POINT ( 'NONE',  ( 0.4773063513447495798, 0.06250000000000000000, -2.261179061574038140 ) ) ;
#262 = CARTESIAN_POINT ( 'NONE',  ( 0.5315389237552849977, 0.06250000000000001388, -2.182589267027215563 ) ) ;
#263 = ORIENTED_EDGE ( 'NONE', *, *, #239, .F. ) ;
#264 = ADVANCED_FACE ( 'NONE', ( #194 ), #42, .F. ) ;
#265 = PLANE ( 'NONE',  #64 ) ;
#266 = CIRCLE ( 'NONE', #283, 0.6250000000000000000 ) ;
#267 = LINE ( 'NONE', #126, #7 ) ;
#268 = CARTESIAN_POINT ( 'NONE',  ( 0.4330127018922192983, 0.06250000000000000000, 0.000000000000000000 ) ) ;
#269 = VERTEX_POINT ( 'NONE', #268 ) ;
#270 = CARTESIAN_POINT ( 'NONE',  ( 0.6218671481916375754, 0.06250000000000000000, -2.152500000000000302 ) ) ;
#271 = EDGE_LOOP ( 'NONE', ( #214, #23, #151, #263 ) ) ;
#272 = EDGE_CURVE ( 'NONE', #269, #193, #19, .T. ) ;
#273 = VERTEX_POINT ( 'NONE', #147 ) ;
#274 = AXIS2_PLACEMENT_3D ( 'NONE', #94, #165, #312 ) ;
#275 = CARTESIAN_POINT ( 'NONE',  ( -0.5101081303241713494, 0.06249999999999999306, -0.09753253436049645619 ) ) ;
#276 = ADVANCED_FACE ( 'NONE', ( #170 ), #320, .F. ) ;
#277 = CARTESIAN_POINT ( 'NONE',  ( 0.5103088940595879031, 0.06250000000000001388, -0.09774931922725192679 ) ) ;
#278 = APPLICATION_PROTOCOL_DEFINITION ( 'draft international standard', 'automotive_design', 1998, #115 ) ;
#279 = CARTESIAN_POINT ( 'NONE',  ( 0.4886136179724153150, 0.06249999999999997224, -0.06572214765790215796 ) ) ;
#280 = CARTESIAN_POINT ( 'NONE',  ( -0.4733920151417850275, 0.06250000000000000000, -2.299999999999999822 ) ) ;
#281 = EDGE_CURVE ( 'NONE', #142, #273, #47, .T. ) ;
#282 = CARTESIAN_POINT ( 'NONE',  ( -0.6250000000000000000, 0.06250000000000000000, -2.299999999999999822 ) ) ;
#283 = AXIS2_PLACEMENT_3D ( 'NONE', #87, #259, #284 ) ;
#284 = DIRECTION ( 'NONE',  ( -1.000000000000000000, 0.000000000000000000, 0.000000000000000000 ) ) ;
#285 = CARTESIAN_POINT ( 'NONE',  ( -0.6218671481916373533, 0.06250000000000000000, -2.299999999999999822 ) ) ;
#286 = DIRECTION ( 'NONE',  ( 0.000000000000000000, 0.000000000000000000, 1.000000000000000000 ) ) ;
#287 = PLANE ( 'NONE',  #180 ) ;
#288 = CARTESIAN_POINT ( 'NONE',  ( 0.4733920151417851940, 0.06250000000000001388, -2.280736919063330426 ) ) ;
#289 = VERTEX_POINT ( 'NONE', #240 ) ;
#290 = CARTESIAN_POINT ( 'NONE',  ( 0.5742115490348453921, 0.06250000000000000000, -2.159994356168838170 ) ) ;
#291 = ORIENTED_EDGE ( 'NONE', *, *, #102, .T. ) ;
#292 = CARTESIAN_POINT ( 'NONE',  ( 0.4330127018922192428, 0.06250000000000000000, -2.299999999999999822 ) ) ;
#293 = EDGE_LOOP ( 'NONE', ( #195, #248, #92, #311, #148, #124 ) ) ;
#294 = DIRECTION ( 'NONE',  ( -0.000000000000000000, -0.000000000000000000, -1.000000000000000000 ) ) ;
#295 = ORIENTED_EDGE ( 'NONE', *, *, #235, .T. ) ;
#296 = CARTESIAN_POINT ( 'NONE',  ( 0.000000000000000000, 0.000000000000000000, 0.000000000000000000 ) ) ;
#297 = VERTEX_POINT ( 'NONE', #15 ) ;
#298 = CARTESIAN_POINT ( 'NONE',  ( -0.4733920151417849720, 0.06250000000000000000, 0.000000000000000000 ) ) ;
#299 = CARTESIAN_POINT ( 'NONE',  ( -0.5561890879443379676, 0.06250000000000001388, -0.1326058826148504843 ) ) ;
#300 = CARTESIAN_POINT ( 'NONE',  ( 0.4733920151417849720, 0.06250000000000000000, -0.01926308093667042712 ) ) ;
#301 = CARTESIAN_POINT ( 'NONE',  ( -0.5475396841029117612, 0.06250000000000001388, -0.1280086552524920818 ) ) ;
#302 = DIRECTION ( 'NONE',  ( -0.000000000000000000, -0.000000000000000000, -1.000000000000000000 ) ) ;
#303 = PRODUCT_DEFINITION_SHAPE ( 'NONE', 'NONE',  #260 ) ;
#304 = CARTESIAN_POINT ( 'NONE',  ( -0.6026229125096587147, 0.06250000000000001388, -2.153429192241383294 ) ) ;
#305 = B_SPLINE_CURVE_WITH_KNOTS ( 'NONE', 3,
 ( #55, #204, #99, #53, #81, #299, #301, #252, #228, #275, #2, #200, #154, #253, #179, #251, #182, #298 ),
 .UNSPECIFIED., .F., .F.,
 ( 4, 2, 2, 2, 2, 2, 2, 2, 4 ),
 ( 0.02180399966908436876, 0.02253792192941951600, 0.02327184418975466670, 0.02400576645008981394, 0.02473968871042496465, 0.02547361097076011188, 0.02620753323109526259, 0.02694145549143040982, 0.02767537775176555706 ),
 .UNSPECIFIED. ) ;
#306 = DIRECTION ( 'NONE',  ( 0.000000000000000000, 1.000000000000000000, 0.000000000000000000 ) ) ;
#307 = AXIS2_PLACEMENT_3D ( 'NONE', #296, #78, #181 ) ;
#308 = CARTESIAN_POINT ( 'NONE',  ( 0.000000000000000000, 0.000000000000000000, -2.300000000000000266 ) ) ;
#309 = PRESENTATION_LAYER_ASSIGNMENT (  '', '', ( #149 ) ) ;
#310 = DIRECTION ( 'NONE',  ( 0.000000000000000000, -0.000000000000000000, 1.000000000000000000 ) ) ;
#311 = ORIENTED_EDGE ( 'NONE', *, *, #112, .T. ) ;
#312 = DIRECTION ( 'NONE',  ( -1.000000000000000000, 0.000000000000000000, 0.000000000000000000 ) ) ;
#313 = ORIENTED_EDGE ( 'NONE', *, *, #281, .F. ) ;
#314 = DIRECTION ( 'NONE',  ( -1.000000000000000000, 0.000000000000000000, 0.000000000000000000 ) ) ;
#315 = VERTEX_POINT ( 'NONE', #97 ) ;
#316 = CARTESIAN_POINT ( 'NONE',  ( 0.000000000000000000, 0.000000000000000000, -2.299999999999999822 ) ) ;
#317 =( GEOMETRIC_REPRESENTATION_CONTEXT ( 3 ) GLOBAL_UNCERTAINTY_ASSIGNED_CONTEXT ( ( #202 ) ) GLOBAL_UNIT_ASSIGNED_CONTEXT ( ( #227, #26, #131 ) ) REPRESENTATION_CONTEXT ( 'NONE', 'WORKASPACE' ) );
#318 = ORIENTED_EDGE ( 'NONE', *, *, #172, .F. ) ;
#319 = ADVANCED_FACE ( 'NONE', ( #139 ), #114, .F. ) ;
#320 = CYLINDRICAL_SURFACE ( 'NONE', #224, 0.4375000000000000000 ) ;
#321 = DIRECTION ( 'NONE',  ( 1.000000000000000000, -0.000000000000000000, -0.000000000000000000 ) ) ;
ENDSEC;
END-ISO-10303-21;
