ISO-10303-21;
HEADER;
FILE_DESCRIPTION (( 'STEP AP214' ),
    '1' );
FILE_NAME ('SP4008.STEP',
    '2025-04-23T16:01:39',
    ( '' ),
    ( '' ),
    'SwSTEP 2.0',
    'SolidWorks 2023',
    '' );
FILE_SCHEMA (( 'AUTOMOTIVE_DESIGN' ));
ENDSEC;

DATA;
#1 = CARTESIAN_POINT ( 'NONE',  ( 0.000000000000000000, 1.111617338968230721E-18, 0.000000000000000000 ) ) ;
#2 = CYLINDRICAL_SURFACE ( 'NONE', #382, 0.5629999999999998339 ) ;
#3 = DIRECTION ( 'NONE',  ( 0.000000000000000000, -1.000000000000000000, 0.000000000000000000 ) ) ;
#4 = VECTOR ( 'NONE', #113, 39.37007874015748854 ) ;
#5 = DIRECTION ( 'NONE',  ( -0.000000000000000000, -1.000000000000000000, -0.000000000000000000 ) ) ;
#6 = AXIS2_PLACEMENT_3D ( 'NONE', #383, #30, #353 ) ;
#7 = CARTESIAN_POINT ( 'NONE',  ( 0.000000000000000000, 0.01000000000000010082, 0.000000000000000000 ) ) ;
#8 = DIRECTION ( 'NONE',  ( 0.000000000000000000, 0.000000000000000000, -1.000000000000000000 ) ) ;
#9 = CARTESIAN_POINT ( 'NONE',  ( 0.000000000000000000, 0.3840000000000000635, 0.000000000000000000 ) ) ;
#10 = VECTOR ( 'NONE', #378, 39.37007874015748143 ) ;
#11 = DIRECTION ( 'NONE',  ( -0.000000000000000000, -1.000000000000000000, -0.000000000000000000 ) ) ;
#12 = DIRECTION ( 'NONE',  ( 0.000000000000000000, 0.000000000000000000, -1.000000000000000000 ) ) ;
#13 = DIRECTION ( 'NONE',  ( -0.000000000000000000, 1.000000000000000000, -0.000000000000000000 ) ) ;
#14 = ORIENTED_EDGE ( 'NONE', *, *, #355, .T. ) ;
#15 = AXIS2_PLACEMENT_3D ( 'NONE', #362, #199, #77 ) ;
#16 = CARTESIAN_POINT ( 'NONE',  ( 7.592810154713587863E-17, 0.3939999999999999614, 0.6149999999999997691 ) ) ;
#17 = AXIS2_PLACEMENT_3D ( 'NONE', #121, #399, #278 ) ;
#18 = ORIENTED_EDGE ( 'NONE', *, *, #227, .F. ) ;
#19 = CIRCLE ( 'NONE', #184, 0.6250000000000000000 ) ;
#20 = EDGE_CURVE ( 'NONE', #52, #360, #313, .T. ) ;
#21 = ORIENTED_EDGE ( 'NONE', *, *, #20, .T. ) ;
#22 = EDGE_LOOP ( 'NONE', ( #331, #303, #394, #18 ) ) ;
#23 = CIRCLE ( 'NONE', #365, 0.6149999999999993250 ) ;
#24 = EDGE_CURVE ( 'NONE', #367, #231, #26, .T. ) ;
#25 = ORIENTED_EDGE ( 'NONE', *, *, #389, .T. ) ;
#26 = LINE ( 'NONE', #28, #165 ) ;
#27 = CARTESIAN_POINT ( 'NONE',  ( 0.000000000000000000, 0.000000000000000000, -0.6250000000000000000 ) ) ;
#28 = CARTESIAN_POINT ( 'NONE',  ( 0.000000000000000000, 0.01000000000000010082, -0.5629999999999998339 ) ) ;
#29 = STYLED_ITEM ( 'NONE', ( #106 ), #327 ) ;
#30 = DIRECTION ( 'NONE',  ( -0.000000000000000000, -1.000000000000000000, -0.000000000000000000 ) ) ;
#31 = APPLICATION_CONTEXT ( 'automotive_design' ) ;
#32 = ORIENTED_EDGE ( 'NONE', *, *, #34, .T. ) ;
#33 = DIRECTION ( 'NONE',  ( 0.000000000000000000, -1.000000000000000000, 0.000000000000000000 ) ) ;
#34 = EDGE_CURVE ( 'NONE', #90, #369, #140, .T. ) ;
#35 = PRODUCT_DEFINITION_FORMATION_WITH_SPECIFIED_SOURCE ( 'ANY', '', #319, .NOT_KNOWN. ) ;
#36 = DIRECTION ( 'NONE',  ( 0.000000000000000000, 0.000000000000000000, -1.000000000000000000 ) ) ;
#37 = FACE_OUTER_BOUND ( 'NONE', #235, .T. ) ;
#38 = CARTESIAN_POINT ( 'NONE',  ( 0.000000000000000000, 0.3939999999999999614, 0.5729999999999995097 ) ) ;
#39 = CARTESIAN_POINT ( 'NONE',  ( 7.654042494670957853E-17, 0.01000000000000043909, 0.6250000000000000000 ) ) ;
#40 = PRODUCT_DEFINITION_CONTEXT ( 'detailed design', #300, 'design' ) ;
#41 = PRODUCT_DEFINITION_SHAPE ( 'NONE', 'NONE',  #381 ) ;
#42 =( NAMED_UNIT ( * ) PLANE_ANGLE_UNIT ( ) SI_UNIT ( $, .RADIAN. ) );
#43 =( GEOMETRIC_REPRESENTATION_CONTEXT ( 3 ) GLOBAL_UNCERTAINTY_ASSIGNED_CONTEXT ( ( #218 ) ) GLOBAL_UNIT_ASSIGNED_CONTEXT ( ( #358, #42, #136 ) ) REPRESENTATION_CONTEXT ( 'NONE', 'WORKASPACE' ) );
#44 = DIRECTION ( 'NONE',  ( 0.000000000000000000, 0.000000000000000000, -1.000000000000000000 ) ) ;
#45 = LENGTH_MEASURE_WITH_UNIT ( LENGTH_MEASURE( 0.02539999999999999897 ), #388 );
#46 = AXIS2_PLACEMENT_3D ( 'NONE', #195, #226, #196 ) ;
#47 = VECTOR ( 'NONE', #287, 39.37007874015748854 ) ;
#48 = DIRECTION ( 'NONE',  ( -0.000000000000000000, -1.000000000000000000, -0.000000000000000000 ) ) ;
#49 = EDGE_CURVE ( 'NONE', #177, #88, #190, .T. ) ;
#50 = ORIENTED_EDGE ( 'NONE', *, *, #109, .T. ) ;
#51 = CARTESIAN_POINT ( 'NONE',  ( 7.017226159114328200E-17, 0.3939999999999999614, -0.5729999999999995097 ) ) ;
#52 = VERTEX_POINT ( 'NONE', #185 ) ;
#53 = CARTESIAN_POINT ( 'NONE',  ( 0.000000000000000000, 0.01000000000000010082, -0.5629999999999998339 ) ) ;
#54 = ORIENTED_EDGE ( 'NONE', *, *, #261, .T. ) ;
#55 =( GEOMETRIC_REPRESENTATION_CONTEXT ( 3 ) GLOBAL_UNCERTAINTY_ASSIGNED_CONTEXT ( ( #213 ) ) GLOBAL_UNIT_ASSIGNED_CONTEXT ( ( #276, #302, #117 ) ) REPRESENTATION_CONTEXT ( 'NONE', 'WORKASPACE' ) );
#56 = CARTESIAN_POINT ( 'NONE',  ( 0.000000000000000000, 0.01000000000000010082, 0.000000000000000000 ) ) ;
#57 = EDGE_LOOP ( 'NONE', ( #89, #25, #180, #220 ) ) ;
#58 = EDGE_CURVE ( 'NONE', #231, #112, #168, .T. ) ;
#59 = ORIENTED_EDGE ( 'NONE', *, *, #20, .F. ) ;
#60 = DIRECTION ( 'NONE',  ( 0.000000000000000000, 0.000000000000000000, -1.000000000000000000 ) ) ;
#61 = VERTEX_POINT ( 'NONE', #380 ) ;
#62 = DIRECTION ( 'NONE',  ( 0.000000000000000000, 0.000000000000000000, -1.000000000000000000 ) ) ;
#63 = EDGE_LOOP ( 'NONE', ( #54, #21 ) ) ;
#64 = EDGE_CURVE ( 'NONE', #270, #212, #79, .T. ) ;
#65 = MECHANICAL_DESIGN_GEOMETRIC_PRESENTATION_REPRESENTATION (  '', ( #29 ), #43 ) ;
#66 = CARTESIAN_POINT ( 'NONE',  ( 0.000000000000000000, 0.000000000000000000, -0.5629999999999998339 ) ) ;
#67 = AXIS2_PLACEMENT_3D ( 'NONE', #308, #68, #153 ) ;
#68 = DIRECTION ( 'NONE',  ( -0.000000000000000000, 1.000000000000000000, -0.000000000000000000 ) ) ;
#69 = DIRECTION ( 'NONE',  ( 0.000000000000000000, 0.000000000000000000, -1.000000000000000000 ) ) ;
#70 = DIRECTION ( 'NONE',  ( 0.000000000000000000, 0.000000000000000000, 1.000000000000000000 ) ) ;
#71 = DIRECTION ( 'NONE',  ( -0.000000000000000000, -1.000000000000000000, -0.000000000000000000 ) ) ;
#72 = DIRECTION ( 'NONE',  ( 0.000000000000000000, 0.000000000000000000, 1.000000000000000000 ) ) ;
#73 = AXIS2_PLACEMENT_3D ( 'NONE', #309, #405, #339 ) ;
#74 = FACE_OUTER_BOUND ( 'NONE', #283, .T. ) ;
#75 = DIRECTION ( 'NONE',  ( 0.000000000000000000, 0.000000000000000000, -1.000000000000000000 ) ) ;
#76 = EDGE_CURVE ( 'NONE', #116, #217, #296, .T. ) ;
#77 = DIRECTION ( 'NONE',  ( 0.000000000000000000, 0.000000000000000000, 1.000000000000000000 ) ) ;
#78 = CONICAL_SURFACE ( 'NONE', #181, 0.6149999999999993250, 0.7853981633974619347 ) ;
#79 = CIRCLE ( 'NONE', #67, 0.5629999999999998339 ) ;
#80 = PLANE ( 'NONE',  #338 ) ;
#81 = VERTEX_POINT ( 'NONE', #100 ) ;
#82 = FILL_AREA_STYLE_COLOUR ( '', #211 ) ;
#83 = DIRECTION ( 'NONE',  ( 0.000000000000000000, 0.000000000000000000, 1.000000000000000000 ) ) ;
#84 = ADVANCED_FACE ( 'NONE', ( #122 ), #246, .T. ) ;
#85 = ORIENTED_EDGE ( 'NONE', *, *, #34, .F. ) ;
#86 = LINE ( 'NONE', #51, #323 ) ;
#87 = AXIS2_PLACEMENT_3D ( 'NONE', #298, #392, #12 ) ;
#88 = VERTEX_POINT ( 'NONE', #244 ) ;
#89 = ORIENTED_EDGE ( 'NONE', *, *, #64, .F. ) ;
#90 = VERTEX_POINT ( 'NONE', #161 ) ;
#91 =( LENGTH_UNIT ( ) NAMED_UNIT ( * ) SI_UNIT ( $, .METRE. ) );
#92 = ORIENTED_EDGE ( 'NONE', *, *, #64, .T. ) ;
#93 = AXIS2_PLACEMENT_3D ( 'NONE', #376, #219, #62 ) ;
#94 = DIRECTION ( 'NONE',  ( 0.000000000000000000, 1.000000000000000000, 0.000000000000000000 ) ) ;
#95 = CARTESIAN_POINT ( 'NONE',  ( 0.000000000000000000, 0.3839999999999997859, -0.6250000000000000000 ) ) ;
#96 = DIRECTION ( 'NONE',  ( -0.000000000000000000, -1.000000000000000000, -0.000000000000000000 ) ) ;
#97 = DIRECTION ( 'NONE',  ( -0.000000000000000000, -1.000000000000000000, -0.000000000000000000 ) ) ;
#98 = CARTESIAN_POINT ( 'NONE',  ( 0.000000000000000000, 1.111617338968230721E-18, 0.000000000000000000 ) ) ;
#99 = CARTESIAN_POINT ( 'NONE',  ( 0.000000000000000000, 1.111617338968230721E-18, 0.6149999999999993250 ) ) ;
#100 = CARTESIAN_POINT ( 'NONE',  ( 6.894761479199596848E-17, 0.01000000000000010082, 0.5629999999999998339 ) ) ;
#101 = ADVANCED_FACE ( 'NONE', ( #350 ), #214, .T. ) ;
#102 = CONICAL_SURFACE ( 'NONE', #208, 0.6250000000000000000, 0.7853981633974551624 ) ;
#103 = DIRECTION ( 'NONE',  ( 0.000000000000000000, 0.7071067811865378028, 0.7071067811865571207 ) ) ;
#104 = FACE_OUTER_BOUND ( 'NONE', #57, .T. ) ;
#105 = FACE_OUTER_BOUND ( 'NONE', #238, .T. ) ;
#106 = PRESENTATION_STYLE_ASSIGNMENT (( #322 ) ) ;
#107 = CIRCLE ( 'NONE', #134, 0.6250000000000000000 ) ;
#108 = ADVANCED_FACE ( 'NONE', ( #215 ), #2, .F. ) ;
#109 = EDGE_CURVE ( 'NONE', #212, #360, #133, .T. ) ;
#110 = DIRECTION ( 'NONE',  ( 0.000000000000000000, 1.000000000000000000, 0.000000000000000000 ) ) ;
#111 = AXIS2_PLACEMENT_3D ( 'NONE', #229, #169, #260 ) ;
#112 = VERTEX_POINT ( 'NONE', #254 ) ;
#113 = DIRECTION ( 'NONE',  ( 8.659560562355051187E-17, 0.7071067811865378028, -0.7071067811865571207 ) ) ;
#114 = EDGE_CURVE ( 'NONE', #61, #188, #202, .T. ) ;
#115 = EDGE_LOOP ( 'NONE', ( #92, #315, #182, #203 ) ) ;
#116 = VERTEX_POINT ( 'NONE', #187 ) ;
#117 =( NAMED_UNIT ( * ) SI_UNIT ( $, .STERADIAN. ) SOLID_ANGLE_UNIT ( ) );
#118 = EDGE_LOOP ( 'NONE', ( #152, #248, #263, #126 ) ) ;
#119 = ORIENTED_EDGE ( 'NONE', *, *, #295, .T. ) ;
#120 = EDGE_CURVE ( 'NONE', #270, #367, #311, .T. ) ;
#121 = CARTESIAN_POINT ( 'NONE',  ( 0.000000000000000000, 0.01000000000000043909, 0.000000000000000000 ) ) ;
#122 = FACE_OUTER_BOUND ( 'NONE', #118, .T. ) ;
#123 = FACE_OUTER_BOUND ( 'NONE', #151, .T. ) ;
#124 = CARTESIAN_POINT ( 'NONE',  ( 0.000000000000000000, 0.3939999999999999614, 0.000000000000000000 ) ) ;
#125 = DIRECTION ( 'NONE',  ( 0.000000000000000000, 0.000000000000000000, -1.000000000000000000 ) ) ;
#126 = ORIENTED_EDGE ( 'NONE', *, *, #76, .T. ) ;
#127 = ADVANCED_BREP_SHAPE_REPRESENTATION ( 'SP4008', ( #327, #387 ), #55 ) ;
#128 = LINE ( 'NONE', #256, #346 ) ;
#129 = DIMENSIONAL_EXPONENTS ( 1.000000000000000000, 0.000000000000000000, 0.000000000000000000, 0.000000000000000000, 0.000000000000000000, 0.000000000000000000, 0.000000000000000000 ) ;
#130 = DIRECTION ( 'NONE',  ( 0.000000000000000000, 0.000000000000000000, -1.000000000000000000 ) ) ;
#131 = AXIS2_PLACEMENT_3D ( 'NONE', #253, #349, #225 ) ;
#132 = DIRECTION ( 'NONE',  ( 0.000000000000000000, 0.000000000000000000, -1.000000000000000000 ) ) ;
#133 = LINE ( 'NONE', #38, #47 ) ;
#134 = AXIS2_PLACEMENT_3D ( 'NONE', #167, #292, #137 ) ;
#135 = DIRECTION ( 'NONE',  ( 0.000000000000000000, 0.000000000000000000, -1.000000000000000000 ) ) ;
#136 =( NAMED_UNIT ( * ) SI_UNIT ( $, .STERADIAN. ) SOLID_ANGLE_UNIT ( ) );
#137 = DIRECTION ( 'NONE',  ( 0.000000000000000000, 0.000000000000000000, -1.000000000000000000 ) ) ;
#138 = VECTOR ( 'NONE', #230, 39.37007874015748143 ) ;
#139 = ADVANCED_FACE ( 'NONE', ( #345 ), #189, .T. ) ;
#140 = CIRCLE ( 'NONE', #239, 0.6149999999999997691 ) ;
#141 = FILL_AREA_STYLE ('',( #82 ) ) ;
#142 = FACE_OUTER_BOUND ( 'NONE', #280, .T. ) ;
#143 = CONICAL_SURFACE ( 'NONE', #15, 0.5729999999999995097, 0.7853981633974380649 ) ;
#144 = ORIENTED_EDGE ( 'NONE', *, *, #49, .F. ) ;
#145 = CONICAL_SURFACE ( 'NONE', #373, 0.5629999999999998339, 0.7853981633974447263 ) ;
#146 = DIRECTION ( 'NONE',  ( 0.000000000000000000, -1.000000000000000000, 0.000000000000000000 ) ) ;
#147 = ORIENTED_EDGE ( 'NONE', *, *, #268, .F. ) ;
#148 = CARTESIAN_POINT ( 'NONE',  ( 7.654042494670957853E-17, 0.3839999999999997859, 0.6250000000000000000 ) ) ;
#149 = EDGE_LOOP ( 'NONE', ( #186, #398, #272, #368 ) ) ;
#150 = ADVANCED_FACE ( 'NONE', ( #123 ), #145, .F. ) ;
#151 = EDGE_LOOP ( 'NONE', ( #364, #306, #396, #210 ) ) ;
#152 = ORIENTED_EDGE ( 'NONE', *, *, #325, .F. ) ;
#153 = DIRECTION ( 'NONE',  ( 0.000000000000000000, 0.000000000000000000, -1.000000000000000000 ) ) ;
#154 = ADVANCED_FACE ( 'NONE', ( #192, #37 ), #290, .T. ) ;
#155 = CARTESIAN_POINT ( 'NONE',  ( 0.000000000000000000, 1.111617338968230721E-18, -0.5729999999999998428 ) ) ;
#156 = ORIENTED_EDGE ( 'NONE', *, *, #268, .T. ) ;
#157 = CONICAL_SURFACE ( 'NONE', #46, 0.5729999999999995097, 0.7853981633974380649 ) ;
#158 = FACE_OUTER_BOUND ( 'NONE', #22, .T. ) ;
#159 = ORIENTED_EDGE ( 'NONE', *, *, #341, .F. ) ;
#160 = CARTESIAN_POINT ( 'NONE',  ( 0.000000000000000000, 0.01000000000000010082, 0.000000000000000000 ) ) ;
#161 = CARTESIAN_POINT ( 'NONE',  ( 0.000000000000000000, 0.3939999999999999614, -0.6149999999999997691 ) ) ;
#162 = CARTESIAN_POINT ( 'NONE',  ( 7.592810154713586630E-17, 1.111617338968230721E-18, -0.6149999999999993250 ) ) ;
#163 = CARTESIAN_POINT ( 'NONE',  ( 0.000000000000000000, 1.111617338968230721E-18, 0.000000000000000000 ) ) ;
#164 = DIRECTION ( 'NONE',  ( 0.000000000000000000, 0.000000000000000000, -1.000000000000000000 ) ) ;
#165 = VECTOR ( 'NONE', #400, 39.37007874015748854 ) ;
#166 = ADVANCED_FACE ( 'NONE', ( #158 ), #78, .T. ) ;
#167 = CARTESIAN_POINT ( 'NONE',  ( 0.000000000000000000, 0.3839999999999997859, 0.000000000000000000 ) ) ;
#168 = CIRCLE ( 'NONE', #273, 0.5729999999999998428 ) ;
#169 = DIRECTION ( 'NONE',  ( 0.000000000000000000, 1.000000000000000000, 0.000000000000000000 ) ) ;
#170 = ADVANCED_FACE ( 'NONE', ( #251 ), #370, .F. ) ;
#171 = DIRECTION ( 'NONE',  ( 0.000000000000000000, 0.000000000000000000, -1.000000000000000000 ) ) ;
#172 = EDGE_LOOP ( 'NONE', ( #269, #332, #241, #344 ) ) ;
#173 = LINE ( 'NONE', #148, #404 ) ;
#174 = PRODUCT_CONTEXT ( 'NONE', #31, 'mechanical' ) ;
#175 = ORIENTED_EDGE ( 'NONE', *, *, #389, .F. ) ;
#176 = DIRECTION ( 'NONE',  ( 8.659560562354992023E-17, -0.7071067811865426878, 0.7071067811865523467 ) ) ;
#177 = VERTEX_POINT ( 'NONE', #95 ) ;
#178 = EDGE_CURVE ( 'NONE', #367, #81, #201, .T. ) ;
#179 = SHAPE_DEFINITION_REPRESENTATION ( #41, #127 ) ;
#180 = ORIENTED_EDGE ( 'NONE', *, *, #261, .F. ) ;
#181 = AXIS2_PLACEMENT_3D ( 'NONE', #320, #374, #72 ) ;
#182 = ORIENTED_EDGE ( 'NONE', *, *, #371, .T. ) ;
#183 = DIRECTION ( 'NONE',  ( 1.000000000000000000, 0.000000000000000000, 0.000000000000000000 ) ) ;
#184 = AXIS2_PLACEMENT_3D ( 'NONE', #297, #110, #171 ) ;
#185 = CARTESIAN_POINT ( 'NONE',  ( 7.017226159114328200E-17, 0.3939999999999999614, -0.5729999999999995097 ) ) ;
#186 = ORIENTED_EDGE ( 'NONE', *, *, #371, .F. ) ;
#187 = CARTESIAN_POINT ( 'NONE',  ( 0.000000000000000000, 0.01000000000000043909, -0.6250000000000000000 ) ) ;
#188 = VERTEX_POINT ( 'NONE', #162 ) ;
#189 = CYLINDRICAL_SURFACE ( 'NONE', #6, 0.6250000000000000000 ) ;
#190 = CIRCLE ( 'NONE', #366, 0.6250000000000000000 ) ;
#191 = EDGE_LOOP ( 'NONE', ( #335, #391, #267, #393 ) ) ;
#192 = FACE_BOUND ( 'NONE', #194, .T. ) ;
#193 = EDGE_CURVE ( 'NONE', #188, #61, #23, .T. ) ;
#194 = EDGE_LOOP ( 'NONE', ( #375, #119 ) ) ;
#195 = CARTESIAN_POINT ( 'NONE',  ( 0.000000000000000000, 0.3939999999999999614, 0.000000000000000000 ) ) ;
#196 = DIRECTION ( 'NONE',  ( 0.000000000000000000, 0.000000000000000000, 1.000000000000000000 ) ) ;
#197 = EDGE_CURVE ( 'NONE', #212, #81, #128, .T. ) ;
#198 = LINE ( 'NONE', #324, #386 ) ;
#199 = DIRECTION ( 'NONE',  ( -0.000000000000000000, 1.000000000000000000, -0.000000000000000000 ) ) ;
#200 = FACE_OUTER_BOUND ( 'NONE', #206, .T. ) ;
#201 = CIRCLE ( 'NONE', #271, 0.5629999999999998339 ) ;
#202 = CIRCLE ( 'NONE', #307, 0.6149999999999993250 ) ;
#203 = ORIENTED_EDGE ( 'NONE', *, *, #120, .F. ) ;
#204 = APPLICATION_PROTOCOL_DEFINITION ( 'draft international standard', 'automotive_design', 1998, #300 ) ;
#205 = ORIENTED_EDGE ( 'NONE', *, *, #328, .F. ) ;
#206 = EDGE_LOOP ( 'NONE', ( #159, #334, #144, #147 ) ) ;
#207 = ADVANCED_FACE ( 'NONE', ( #104 ), #157, .F. ) ;
#208 = AXIS2_PLACEMENT_3D ( 'NONE', #259, #48, #8 ) ;
#209 = ORIENTED_EDGE ( 'NONE', *, *, #330, .F. ) ;
#210 = ORIENTED_EDGE ( 'NONE', *, *, #295, .F. ) ;
#211 = COLOUR_RGB ( '',0.7921568627450980005, 0.8196078431372548767, 0.9333333333333333481 ) ;
#212 = VERTEX_POINT ( 'NONE', #286 ) ;
#213 = UNCERTAINTY_MEASURE_WITH_UNIT (LENGTH_MEASURE( 1.000000000000000082E-05 ), #276, 'distance_accuracy_value', 'NONE');
#214 = CONICAL_SURFACE ( 'NONE', #266, 0.6149999999999993250, 0.7853981633974619347 ) ;
#215 = FACE_OUTER_BOUND ( 'NONE', #115, .T. ) ;
#216 = CARTESIAN_POINT ( 'NONE',  ( 6.894761479199596848E-17, 0.01000000000000010082, 0.5629999999999998339 ) ) ;
#217 = VERTEX_POINT ( 'NONE', #39 ) ;
#218 = UNCERTAINTY_MEASURE_WITH_UNIT (LENGTH_MEASURE( 1.000000000000000082E-05 ), #358, 'distance_accuracy_value', 'NONE');
#219 = DIRECTION ( 'NONE',  ( 0.000000000000000000, -1.000000000000000000, -0.000000000000000000 ) ) ;
#220 = ORIENTED_EDGE ( 'NONE', *, *, #109, .F. ) ;
#221 = PRESENTATION_LAYER_ASSIGNMENT (  '', '', ( #29 ) ) ;
#222 = EDGE_CURVE ( 'NONE', #177, #116, #403, .T. ) ;
#223 = LINE ( 'NONE', #216, #265 ) ;
#224 = CARTESIAN_POINT ( 'NONE',  ( 0.000000000000000000, 0.000000000000000000, 0.000000000000000000 ) ) ;
#225 = DIRECTION ( 'NONE',  ( 0.000000000000000000, 0.000000000000000000, -1.000000000000000000 ) ) ;
#226 = DIRECTION ( 'NONE',  ( -0.000000000000000000, 1.000000000000000000, -0.000000000000000000 ) ) ;
#227 = EDGE_CURVE ( 'NONE', #61, #217, #316, .T. ) ;
#228 = CARTESIAN_POINT ( 'NONE',  ( 1.302034003431919891E-15, 0.3939999999999999614, 0.000000000000000000 ) ) ;
#229 = CARTESIAN_POINT ( 'NONE',  ( 0.000000000000000000, 1.111617338968230721E-18, 0.000000000000000000 ) ) ;
#230 = DIRECTION ( 'NONE',  ( 0.000000000000000000, -0.7071067811865426878, -0.7071067811865523467 ) ) ;
#231 = VERTEX_POINT ( 'NONE', #155 ) ;
#232 = CARTESIAN_POINT ( 'NONE',  ( 0.000000000000000000, 0.3840000000000000635, -0.5629999999999998339 ) ) ;
#233 = AXIS2_PLACEMENT_3D ( 'NONE', #56, #146, #245 ) ;
#234 = EDGE_LOOP ( 'NONE', ( #304, #301, #14, #363 ) ) ;
#235 = EDGE_LOOP ( 'NONE', ( #299, #337 ) ) ;
#236 = LENGTH_MEASURE_WITH_UNIT ( LENGTH_MEASURE( 0.02539999999999999897 ), #91 );
#237 = AXIS2_PLACEMENT_3D ( 'NONE', #401, #97, #69 ) ;
#238 = EDGE_LOOP ( 'NONE', ( #32, #312 ) ) ;
#239 = AXIS2_PLACEMENT_3D ( 'NONE', #124, #250, #130 ) ;
#240 = EDGE_CURVE ( 'NONE', #81, #112, #223, .T. ) ;
#241 = ORIENTED_EDGE ( 'NONE', *, *, #227, .T. ) ;
#242 = ADVANCED_FACE ( 'NONE', ( #249 ), #279, .F. ) ;
#243 = DIRECTION ( 'NONE',  ( 8.659560562354842879E-17, 0.7071067811865546782, -0.7071067811865402453 ) ) ;
#244 = CARTESIAN_POINT ( 'NONE',  ( 7.654042494670957853E-17, 0.3839999999999997859, 0.6250000000000000000 ) ) ;
#245 = DIRECTION ( 'NONE',  ( 0.000000000000000000, 0.000000000000000000, -1.000000000000000000 ) ) ;
#246 = CYLINDRICAL_SURFACE ( 'NONE', #340, 0.6250000000000000000 ) ;
#247 = DIRECTION ( 'NONE',  ( 0.000000000000000000, 0.000000000000000000, -1.000000000000000000 ) ) ;
#248 = ORIENTED_EDGE ( 'NONE', *, *, #330, .T. ) ;
#249 = FACE_OUTER_BOUND ( 'NONE', #191, .T. ) ;
#250 = DIRECTION ( 'NONE',  ( 0.000000000000000000, 1.000000000000000000, 0.000000000000000000 ) ) ;
#251 = FACE_OUTER_BOUND ( 'NONE', #149, .T. ) ;
#252 = CARTESIAN_POINT ( 'NONE',  ( 0.000000000000000000, 0.000000000000000000, 0.000000000000000000 ) ) ;
#253 = CARTESIAN_POINT ( 'NONE',  ( 0.000000000000000000, 0.000000000000000000, 0.000000000000000000 ) ) ;
#254 = CARTESIAN_POINT ( 'NONE',  ( 7.017226159114333130E-17, 1.111617338968230721E-18, 0.5729999999999998428 ) ) ;
#255 = AXIS2_PLACEMENT_3D ( 'NONE', #9, #13, #44 ) ;
#256 = CARTESIAN_POINT ( 'NONE',  ( 6.894761479199596848E-17, 0.000000000000000000, 0.5629999999999998339 ) ) ;
#257 = CARTESIAN_POINT ( 'NONE',  ( 0.000000000000000000, 0.3939999999999999614, 0.000000000000000000 ) ) ;
#258 = CIRCLE ( 'NONE', #111, 0.5729999999999998428 ) ;
#259 = CARTESIAN_POINT ( 'NONE',  ( 0.000000000000000000, 0.3839999999999997859, 0.000000000000000000 ) ) ;
#260 = DIRECTION ( 'NONE',  ( 0.000000000000000000, 0.000000000000000000, -1.000000000000000000 ) ) ;
#261 = EDGE_CURVE ( 'NONE', #360, #52, #357, .T. ) ;
#262 = SURFACE_STYLE_FILL_AREA ( #141 ) ;
#263 = ORIENTED_EDGE ( 'NONE', *, *, #222, .T. ) ;
#264 = CARTESIAN_POINT ( 'NONE',  ( 7.531577814756214175E-17, 1.111617338968230721E-18, -0.6149999999999993250 ) ) ;
#265 = VECTOR ( 'NONE', #343, 39.37007874015748854 ) ;
#266 = AXIS2_PLACEMENT_3D ( 'NONE', #285, #94, #70 ) ;
#267 = ORIENTED_EDGE ( 'NONE', *, *, #120, .T. ) ;
#268 = EDGE_CURVE ( 'NONE', #90, #177, #352, .T. ) ;
#269 = ORIENTED_EDGE ( 'NONE', *, *, #282, .F. ) ;
#270 = VERTEX_POINT ( 'NONE', #232 ) ;
#271 = AXIS2_PLACEMENT_3D ( 'NONE', #160, #284, #132 ) ;
#272 = ORIENTED_EDGE ( 'NONE', *, *, #58, .F. ) ;
#273 = AXIS2_PLACEMENT_3D ( 'NONE', #98, #347, #342 ) ;
#274 = CIRCLE ( 'NONE', #233, 0.5629999999999998339 ) ;
#275 = DIRECTION ( 'NONE',  ( 0.000000000000000000, 0.000000000000000000, -1.000000000000000000 ) ) ;
#276 =( CONVERSION_BASED_UNIT ( 'INCH', #236 ) LENGTH_UNIT ( ) NAMED_UNIT ( #351 ) );
#277 = APPLICATION_PROTOCOL_DEFINITION ( 'draft international standard', 'automotive_design', 1998, #31 ) ;
#278 = DIRECTION ( 'NONE',  ( 0.000000000000000000, 0.000000000000000000, -1.000000000000000000 ) ) ;
#279 = CYLINDRICAL_SURFACE ( 'NONE', #131, 0.5629999999999998339 ) ;
#280 = EDGE_LOOP ( 'NONE', ( #402, #85, #156, #209 ) ) ;
#281 = DIRECTION ( 'NONE',  ( -0.000000000000000000, -1.000000000000000000, -0.000000000000000000 ) ) ;
#282 = EDGE_CURVE ( 'NONE', #188, #116, #293, .T. ) ;
#283 = EDGE_LOOP ( 'NONE', ( #175, #205, #50, #59 ) ) ;
#284 = DIRECTION ( 'NONE',  ( 0.000000000000000000, -1.000000000000000000, 0.000000000000000000 ) ) ;
#285 = CARTESIAN_POINT ( 'NONE',  ( 0.000000000000000000, 1.111617338968230721E-18, 0.000000000000000000 ) ) ;
#286 = CARTESIAN_POINT ( 'NONE',  ( 6.894761479199596848E-17, 0.3840000000000000635, 0.5629999999999998339 ) ) ;
#287 = DIRECTION ( 'NONE',  ( 0.000000000000000000, 0.7071067811865546782, 0.7071067811865402453 ) ) ;
#288 = CONICAL_SURFACE ( 'NONE', #87, 0.6250000000000000000, 0.7853981633974551624 ) ;
#289 = ADVANCED_FACE ( 'NONE', ( #142 ), #288, .T. ) ;
#290 = PLANE ( 'NONE',  #93 ) ;
#291 = CIRCLE ( 'NONE', #255, 0.5629999999999998339 ) ;
#292 = DIRECTION ( 'NONE',  ( -0.000000000000000000, -1.000000000000000000, -0.000000000000000000 ) ) ;
#293 = LINE ( 'NONE', #264, #4 ) ;
#294 = CARTESIAN_POINT ( 'NONE',  ( 0.000000000000000000, 0.3839999999999997859, -0.6250000000000000000 ) ) ;
#295 = EDGE_CURVE ( 'NONE', #112, #231, #258, .T. ) ;
#296 = CIRCLE ( 'NONE', #17, 0.6250000000000000000 ) ;
#297 = CARTESIAN_POINT ( 'NONE',  ( 0.000000000000000000, 0.01000000000000043909, 0.000000000000000000 ) ) ;
#298 = CARTESIAN_POINT ( 'NONE',  ( 0.000000000000000000, 0.3839999999999997859, 0.000000000000000000 ) ) ;
#299 = ORIENTED_EDGE ( 'NONE', *, *, #114, .T. ) ;
#300 = APPLICATION_CONTEXT ( 'automotive_design' ) ;
#301 = ORIENTED_EDGE ( 'NONE', *, *, #325, .T. ) ;
#302 =( NAMED_UNIT ( * ) PLANE_ANGLE_UNIT ( ) SI_UNIT ( $, .RADIAN. ) );
#303 = ORIENTED_EDGE ( 'NONE', *, *, #282, .T. ) ;
#304 = ORIENTED_EDGE ( 'NONE', *, *, #49, .T. ) ;
#305 = PRODUCT_RELATED_PRODUCT_CATEGORY ( 'part', '', ( #319 ) ) ;
#306 = ORIENTED_EDGE ( 'NONE', *, *, #178, .F. ) ;
#307 = AXIS2_PLACEMENT_3D ( 'NONE', #163, #5, #135 ) ;
#308 = CARTESIAN_POINT ( 'NONE',  ( 0.000000000000000000, 0.3840000000000000635, 0.000000000000000000 ) ) ;
#309 = CARTESIAN_POINT ( 'NONE',  ( 0.000000000000000000, 0.3939999999999999614, 0.000000000000000000 ) ) ;
#310 = ADVANCED_FACE ( 'NONE', ( #356, #105 ), #80, .F. ) ;
#311 = LINE ( 'NONE', #66, #359 ) ;
#312 = ORIENTED_EDGE ( 'NONE', *, *, #341, .T. ) ;
#313 = CIRCLE ( 'NONE', #73, 0.5729999999999995097 ) ;
#314 = CARTESIAN_POINT ( 'NONE',  ( 0.000000000000000000, 0.01000000000000010082, 0.000000000000000000 ) ) ;
#315 = ORIENTED_EDGE ( 'NONE', *, *, #197, .T. ) ;
#316 = LINE ( 'NONE', #99, #379 ) ;
#317 = ADVANCED_FACE ( 'NONE', ( #74 ), #143, .F. ) ;
#318 = DIRECTION ( 'NONE',  ( -0.000000000000000000, -1.000000000000000000, -0.000000000000000000 ) ) ;
#319 = PRODUCT ( 'SP4008', 'SP4008', '', ( #174 ) ) ;
#320 = CARTESIAN_POINT ( 'NONE',  ( 0.000000000000000000, 1.111617338968230721E-18, 0.000000000000000000 ) ) ;
#321 = AXIS2_PLACEMENT_3D ( 'NONE', #7, #3, #164 ) ;
#322 = SURFACE_STYLE_USAGE ( .BOTH. , #326 ) ;
#323 = VECTOR ( 'NONE', #243, 39.37007874015748854 ) ;
#324 = CARTESIAN_POINT ( 'NONE',  ( 7.654042494670957853E-17, 0.000000000000000000, 0.6250000000000000000 ) ) ;
#325 = EDGE_CURVE ( 'NONE', #88, #217, #198, .T. ) ;
#326 = SURFACE_SIDE_STYLE ('',( #262 ) ) ;
#327 = MANIFOLD_SOLID_BREP ( 'Chamfer2', #348 ) ;
#328 = EDGE_CURVE ( 'NONE', #212, #270, #291, .T. ) ;
#329 = AXIS2_PLACEMENT_3D ( 'NONE', #257, #390, #385 ) ;
#330 = EDGE_CURVE ( 'NONE', #88, #177, #107, .T. ) ;
#331 = ORIENTED_EDGE ( 'NONE', *, *, #193, .F. ) ;
#332 = ORIENTED_EDGE ( 'NONE', *, *, #114, .F. ) ;
#333 = CARTESIAN_POINT ( 'NONE',  ( 0.000000000000000000, 0.000000000000000000, 0.000000000000000000 ) ) ;
#334 = ORIENTED_EDGE ( 'NONE', *, *, #395, .T. ) ;
#335 = ORIENTED_EDGE ( 'NONE', *, *, #197, .F. ) ;
#336 = ADVANCED_FACE ( 'NONE', ( #200 ), #102, .T. ) ;
#337 = ORIENTED_EDGE ( 'NONE', *, *, #193, .T. ) ;
#338 = AXIS2_PLACEMENT_3D ( 'NONE', #228, #354, #75 ) ;
#339 = DIRECTION ( 'NONE',  ( 0.000000000000000000, 0.000000000000000000, -1.000000000000000000 ) ) ;
#340 = AXIS2_PLACEMENT_3D ( 'NONE', #224, #372, #36 ) ;
#341 = EDGE_CURVE ( 'NONE', #369, #90, #361, .T. ) ;
#342 = DIRECTION ( 'NONE',  ( 0.000000000000000000, 0.000000000000000000, -1.000000000000000000 ) ) ;
#343 = DIRECTION ( 'NONE',  ( 8.659560562354900811E-17, -0.7071067811865499042, 0.7071067811865450192 ) ) ;
#344 = ORIENTED_EDGE ( 'NONE', *, *, #76, .F. ) ;
#345 = FACE_OUTER_BOUND ( 'NONE', #234, .T. ) ;
#346 = VECTOR ( 'NONE', #384, 39.37007874015748143 ) ;
#347 = DIRECTION ( 'NONE',  ( 0.000000000000000000, 1.000000000000000000, 0.000000000000000000 ) ) ;
#348 = CLOSED_SHELL ( 'NONE', ( #336, #207, #166, #170, #108, #139, #84, #310, #242, #154, #150, #101, #317, #289 ) ) ;
#349 = DIRECTION ( 'NONE',  ( -0.000000000000000000, -1.000000000000000000, -0.000000000000000000 ) ) ;
#350 = FACE_OUTER_BOUND ( 'NONE', #172, .T. ) ;
#351 = DIMENSIONAL_EXPONENTS ( 1.000000000000000000, 0.000000000000000000, 0.000000000000000000, 0.000000000000000000, 0.000000000000000000, 0.000000000000000000, 0.000000000000000000 ) ;
#352 = LINE ( 'NONE', #294, #138 ) ;
#353 = DIRECTION ( 'NONE',  ( 0.000000000000000000, 0.000000000000000000, -1.000000000000000000 ) ) ;
#354 = DIRECTION ( 'NONE',  ( 0.000000000000000000, -1.000000000000000000, -0.000000000000000000 ) ) ;
#355 = EDGE_CURVE ( 'NONE', #217, #116, #19, .T. ) ;
#356 = FACE_BOUND ( 'NONE', #63, .T. ) ;
#357 = CIRCLE ( 'NONE', #237, 0.5729999999999995097 ) ;
#358 =( CONVERSION_BASED_UNIT ( 'INCH', #45 ) LENGTH_UNIT ( ) NAMED_UNIT ( #129 ) );
#359 = VECTOR ( 'NONE', #281, 39.37007874015748143 ) ;
#360 = VERTEX_POINT ( 'NONE', #397 ) ;
#361 = CIRCLE ( 'NONE', #329, 0.6149999999999997691 ) ;
#362 = CARTESIAN_POINT ( 'NONE',  ( 0.000000000000000000, 0.3939999999999999614, 0.000000000000000000 ) ) ;
#363 = ORIENTED_EDGE ( 'NONE', *, *, #222, .F. ) ;
#364 = ORIENTED_EDGE ( 'NONE', *, *, #240, .F. ) ;
#365 = AXIS2_PLACEMENT_3D ( 'NONE', #1, #71, #125 ) ;
#366 = AXIS2_PLACEMENT_3D ( 'NONE', #377, #96, #60 ) ;
#367 = VERTEX_POINT ( 'NONE', #53 ) ;
#368 = ORIENTED_EDGE ( 'NONE', *, *, #24, .F. ) ;
#369 = VERTEX_POINT ( 'NONE', #16 ) ;
#370 = CONICAL_SURFACE ( 'NONE', #321, 0.5629999999999998339, 0.7853981633974447263 ) ;
#371 = EDGE_CURVE ( 'NONE', #81, #367, #274, .T. ) ;
#372 = DIRECTION ( 'NONE',  ( -0.000000000000000000, -1.000000000000000000, -0.000000000000000000 ) ) ;
#373 = AXIS2_PLACEMENT_3D ( 'NONE', #314, #33, #247 ) ;
#374 = DIRECTION ( 'NONE',  ( 0.000000000000000000, 1.000000000000000000, 0.000000000000000000 ) ) ;
#375 = ORIENTED_EDGE ( 'NONE', *, *, #58, .T. ) ;
#376 = CARTESIAN_POINT ( 'NONE',  ( 9.717505120676822460E-35, 1.111617338968230721E-18, 0.000000000000000000 ) ) ;
#377 = CARTESIAN_POINT ( 'NONE',  ( 0.000000000000000000, 0.3839999999999997859, 0.000000000000000000 ) ) ;
#378 = DIRECTION ( 'NONE',  ( -0.000000000000000000, -1.000000000000000000, -0.000000000000000000 ) ) ;
#379 = VECTOR ( 'NONE', #103, 39.37007874015748854 ) ;
#380 = CARTESIAN_POINT ( 'NONE',  ( 0.000000000000000000, 1.111617338968230721E-18, 0.6149999999999993250 ) ) ;
#381 = PRODUCT_DEFINITION ( 'UNKNOWN', '', #35, #40 ) ;
#382 = AXIS2_PLACEMENT_3D ( 'NONE', #252, #318, #275 ) ;
#383 = CARTESIAN_POINT ( 'NONE',  ( 0.000000000000000000, 0.000000000000000000, 0.000000000000000000 ) ) ;
#384 = DIRECTION ( 'NONE',  ( -0.000000000000000000, -1.000000000000000000, -0.000000000000000000 ) ) ;
#385 = DIRECTION ( 'NONE',  ( 0.000000000000000000, 0.000000000000000000, -1.000000000000000000 ) ) ;
#386 = VECTOR ( 'NONE', #11, 39.37007874015748143 ) ;
#387 = AXIS2_PLACEMENT_3D ( 'NONE', #333, #83, #183 ) ;
#388 =( LENGTH_UNIT ( ) NAMED_UNIT ( * ) SI_UNIT ( $, .METRE. ) );
#389 = EDGE_CURVE ( 'NONE', #270, #52, #86, .T. ) ;
#390 = DIRECTION ( 'NONE',  ( 0.000000000000000000, 1.000000000000000000, 0.000000000000000000 ) ) ;
#391 = ORIENTED_EDGE ( 'NONE', *, *, #328, .T. ) ;
#392 = DIRECTION ( 'NONE',  ( -0.000000000000000000, -1.000000000000000000, -0.000000000000000000 ) ) ;
#393 = ORIENTED_EDGE ( 'NONE', *, *, #178, .T. ) ;
#394 = ORIENTED_EDGE ( 'NONE', *, *, #355, .F. ) ;
#395 = EDGE_CURVE ( 'NONE', #369, #88, #173, .T. ) ;
#396 = ORIENTED_EDGE ( 'NONE', *, *, #24, .T. ) ;
#397 = CARTESIAN_POINT ( 'NONE',  ( 0.000000000000000000, 0.3939999999999999614, 0.5729999999999995097 ) ) ;
#398 = ORIENTED_EDGE ( 'NONE', *, *, #240, .T. ) ;
#399 = DIRECTION ( 'NONE',  ( 0.000000000000000000, 1.000000000000000000, 0.000000000000000000 ) ) ;
#400 = DIRECTION ( 'NONE',  ( 0.000000000000000000, -0.7071067811865499042, -0.7071067811865450192 ) ) ;
#401 = CARTESIAN_POINT ( 'NONE',  ( 0.000000000000000000, 0.3939999999999999614, 0.000000000000000000 ) ) ;
#402 = ORIENTED_EDGE ( 'NONE', *, *, #395, .F. ) ;
#403 = LINE ( 'NONE', #27, #10 ) ;
#404 = VECTOR ( 'NONE', #176, 39.37007874015748143 ) ;
#405 = DIRECTION ( 'NONE',  ( -0.000000000000000000, -1.000000000000000000, -0.000000000000000000 ) ) ;
ENDSEC;
END-ISO-10303-21;
