ISO-10303-21;
HEADER;
FILE_DESCRIPTION (( 'STEP AP214' ),
    '1' );
FILE_NAME ('SP4006.STEP',
    '2025-04-23T16:00:55',
    ( '' ),
    ( '' ),
    'SwSTEP 2.0',
    'SolidWorks 2023',
    '' );
FILE_SCHEMA (( 'AUTOMOTIVE_DESIGN' ));
ENDSEC;

DATA;
#1 = EDGE_CURVE ( 'NONE', #278, #42, #265, .T. ) ;
#2 = LINE ( 'NONE', #247, #375 ) ;
#3 = ORIENTED_EDGE ( 'NONE', *, *, #110, .F. ) ;
#4 = AXIS2_PLACEMENT_3D ( 'NONE', #312, #210, #5 ) ;
#5 = DIRECTION ( 'NONE',  ( 0.000000000000000000, 0.000000000000000000, -1.000000000000000000 ) ) ;
#6 = ORIENTED_EDGE ( 'NONE', *, *, #81, .T. ) ;
#7 = ORIENTED_EDGE ( 'NONE', *, *, #192, .T. ) ;
#8 = EDGE_CURVE ( 'NONE', #131, #397, #244, .T. ) ;
#9 = FACE_OUTER_BOUND ( 'NONE', #321, .T. ) ;
#10 = AXIS2_PLACEMENT_3D ( 'NONE', #59, #120, #23 ) ;
#11 = ORIENTED_EDGE ( 'NONE', *, *, #159, .F. ) ;
#12 = CARTESIAN_POINT ( 'NONE',  ( 0.000000000000000000, 1.111524659297021438E-18, 0.000000000000000000 ) ) ;
#13 = EDGE_LOOP ( 'NONE', ( #190, #317, #222, #323 ) ) ;
#14 = ADVANCED_FACE ( 'NONE', ( #193, #334 ), #198, .F. ) ;
#15 = SURFACE_STYLE_FILL_AREA ( #292 ) ;
#16 = ORIENTED_EDGE ( 'NONE', *, *, #1, .T. ) ;
#17 = AXIS2_PLACEMENT_3D ( 'NONE', #273, #400, #402 ) ;
#18 = EDGE_LOOP ( 'NONE', ( #118, #125, #16, #6 ) ) ;
#19 = CARTESIAN_POINT ( 'NONE',  ( 0.000000000000000000, 0.000000000000000000, 0.000000000000000000 ) ) ;
#20 = DIRECTION ( 'NONE',  ( -0.000000000000000000, -1.000000000000000000, -0.000000000000000000 ) ) ;
#21 = DIRECTION ( 'NONE',  ( 0.000000000000000000, 0.000000000000000000, -1.000000000000000000 ) ) ;
#22 = FACE_OUTER_BOUND ( 'NONE', #13, .T. ) ;
#23 = DIRECTION ( 'NONE',  ( 0.000000000000000000, 0.000000000000000000, -1.000000000000000000 ) ) ;
#24 = LINE ( 'NONE', #379, #368 ) ;
#25 = ADVANCED_FACE ( 'NONE', ( #49 ), #108, .T. ) ;
#26 = AXIS2_PLACEMENT_3D ( 'NONE', #172, #250, #30 ) ;
#27 = VECTOR ( 'NONE', #66, 39.37007874015748143 ) ;
#28 = DIRECTION ( 'NONE',  ( 0.000000000000000000, 0.000000000000000000, -1.000000000000000000 ) ) ;
#29 = ORIENTED_EDGE ( 'NONE', *, *, #92, .T. ) ;
#30 = DIRECTION ( 'NONE',  ( 0.000000000000000000, 0.000000000000000000, -1.000000000000000000 ) ) ;
#31 = DIRECTION ( 'NONE',  ( 0.000000000000000000, 0.000000000000000000, -1.000000000000000000 ) ) ;
#32 = ORIENTED_EDGE ( 'NONE', *, *, #274, .T. ) ;
#33 = ADVANCED_FACE ( 'NONE', ( #106 ), #392, .F. ) ;
#34 = FILL_AREA_STYLE_COLOUR ( '', #58 ) ;
#35 = FACE_OUTER_BOUND ( 'NONE', #343, .T. ) ;
#36 = VERTEX_POINT ( 'NONE', #78 ) ;
#37 = AXIS2_PLACEMENT_3D ( 'NONE', #331, #237, #366 ) ;
#38 = CIRCLE ( 'NONE', #223, 0.6150000000000001021 ) ;
#39 = EDGE_CURVE ( 'NONE', #36, #68, #248, .T. ) ;
#40 = ORIENTED_EDGE ( 'NONE', *, *, #140, .F. ) ;
#41 = CARTESIAN_POINT ( 'NONE',  ( 0.000000000000000000, 1.111524659297021438E-18, 0.000000000000000000 ) ) ;
#42 = VERTEX_POINT ( 'NONE', #381 ) ;
#43 = FACE_OUTER_BOUND ( 'NONE', #73, .T. ) ;
#44 = DIRECTION ( 'NONE',  ( 0.000000000000000000, 0.000000000000000000, -1.000000000000000000 ) ) ;
#45 = AXIS2_PLACEMENT_3D ( 'NONE', #94, #228, #156 ) ;
#46 = EDGE_LOOP ( 'NONE', ( #3, #40, #202, #150 ) ) ;
#47 = CARTESIAN_POINT ( 'NONE',  ( 0.000000000000000000, 0.000000000000000000, 0.000000000000000000 ) ) ;
#48 = EDGE_CURVE ( 'NONE', #288, #363, #147, .T. ) ;
#49 = FACE_OUTER_BOUND ( 'NONE', #127, .T. ) ;
#50 = SHAPE_DEFINITION_REPRESENTATION ( #93, #187 ) ;
#51 = DIRECTION ( 'NONE',  ( -0.000000000000000000, 1.000000000000000000, -0.000000000000000000 ) ) ;
#52 = DIRECTION ( 'NONE',  ( 0.000000000000000000, 0.000000000000000000, -1.000000000000000000 ) ) ;
#53 = CARTESIAN_POINT ( 'NONE',  ( 7.592810154713589096E-17, 0.1999999999999999833, 0.6150000000000001021 ) ) ;
#54 = AXIS2_PLACEMENT_3D ( 'NONE', #373, #336, #21 ) ;
#55 = AXIS2_PLACEMENT_3D ( 'NONE', #364, #144, #132 ) ;
#56 = EDGE_CURVE ( 'NONE', #101, #355, #206, .T. ) ;
#57 = UNCERTAINTY_MEASURE_WITH_UNIT (LENGTH_MEASURE( 1.000000000000000082E-05 ), #390, 'distance_accuracy_value', 'NONE');
#58 = COLOUR_RGB ( '',0.7921568627450980005, 0.8196078431372548767, 0.9333333333333333481 ) ;
#59 = CARTESIAN_POINT ( 'NONE',  ( 0.000000000000000000, 0.01000000000000023613, 0.000000000000000000 ) ) ;
#60 = DIRECTION ( 'NONE',  ( -0.000000000000000000, 1.000000000000000000, -0.000000000000000000 ) ) ;
#61 = ORIENTED_EDGE ( 'NONE', *, *, #238, .T. ) ;
#62 = CARTESIAN_POINT ( 'NONE',  ( 0.000000000000000000, 0.1999999999999999833, -0.6150000000000001021 ) ) ;
#63 = VERTEX_POINT ( 'NONE', #115 ) ;
#64 = DIRECTION ( 'NONE',  ( 0.000000000000000000, 0.000000000000000000, -1.000000000000000000 ) ) ;
#65 = ORIENTED_EDGE ( 'NONE', *, *, #1, .F. ) ;
#66 = DIRECTION ( 'NONE',  ( 0.000000000000000000, 0.7071067811865547892, 0.7071067811865402453 ) ) ;
#67 = EDGE_CURVE ( 'NONE', #363, #288, #340, .T. ) ;
#68 = VERTEX_POINT ( 'NONE', #85 ) ;
#69 = LINE ( 'NONE', #158, #142 ) ;
#70 = CIRCLE ( 'NONE', #359, 0.5629999999999999449 ) ;
#71 = ORIENTED_EDGE ( 'NONE', *, *, #81, .F. ) ;
#72 = DIRECTION ( 'NONE',  ( 0.000000000000000000, 0.000000000000000000, -1.000000000000000000 ) ) ;
#73 = EDGE_LOOP ( 'NONE', ( #353, #61, #225, #11 ) ) ;
#74 = CYLINDRICAL_SURFACE ( 'NONE', #245, 0.5629999999999999449 ) ;
#75 = DIRECTION ( 'NONE',  ( -0.000000000000000000, -1.000000000000000000, -0.000000000000000000 ) ) ;
#76 = LENGTH_MEASURE_WITH_UNIT ( LENGTH_MEASURE( 0.02539999999999999897 ), #241 );
#77 = CONICAL_SURFACE ( 'NONE', #307, 0.5629999999999999449, 0.7853981633974482790 ) ;
#78 = CARTESIAN_POINT ( 'NONE',  ( 0.000000000000000000, 1.111524659297021438E-18, -0.5730000000000001759 ) ) ;
#79 = DIRECTION ( 'NONE',  ( 8.659560562354932858E-17, -0.7071067811865474617, 0.7071067811865474617 ) ) ;
#80 = FACE_OUTER_BOUND ( 'NONE', #347, .T. ) ;
#81 = EDGE_CURVE ( 'NONE', #42, #63, #95, .T. ) ;
#82 = CARTESIAN_POINT ( 'NONE',  ( 0.000000000000000000, 0.1900000000000000855, 0.000000000000000000 ) ) ;
#83 = PRODUCT_DEFINITION_CONTEXT ( 'detailed design', #365, 'design' ) ;
#84 = ADVANCED_FACE ( 'NONE', ( #279 ), #211, .F. ) ;
#85 = CARTESIAN_POINT ( 'NONE',  ( 7.017226159114335595E-17, 1.111524659297021438E-18, 0.5730000000000001759 ) ) ;
#86 = ORIENTED_EDGE ( 'NONE', *, *, #302, .F. ) ;
#87 = VECTOR ( 'NONE', #109, 39.37007874015748143 ) ;
#88 = DIRECTION ( 'NONE',  ( -0.000000000000000000, -1.000000000000000000, -0.000000000000000000 ) ) ;
#89 = ORIENTED_EDGE ( 'NONE', *, *, #229, .F. ) ;
#90 = CIRCLE ( 'NONE', #216, 0.5629999999999999449 ) ;
#91 = CARTESIAN_POINT ( 'NONE',  ( 0.000000000000000000, 0.1999999999999999833, 0.000000000000000000 ) ) ;
#92 = EDGE_CURVE ( 'NONE', #397, #131, #167, .T. ) ;
#93 = PRODUCT_DEFINITION_SHAPE ( 'NONE', 'NONE',  #134 ) ;
#94 = CARTESIAN_POINT ( 'NONE',  ( 0.000000000000000000, 0.01000000000000023613, 0.000000000000000000 ) ) ;
#95 = CIRCLE ( 'NONE', #10, 0.5629999999999999449 ) ;
#96 = AXIS2_PLACEMENT_3D ( 'NONE', #224, #126, #256 ) ;
#97 =( NAMED_UNIT ( * ) SI_UNIT ( $, .STERADIAN. ) SOLID_ANGLE_UNIT ( ) );
#98 = DIRECTION ( 'NONE',  ( 0.000000000000000000, -1.000000000000000000, -0.000000000000000000 ) ) ;
#99 = ORIENTED_EDGE ( 'NONE', *, *, #385, .T. ) ;
#100 = DIRECTION ( 'NONE',  ( 0.000000000000000000, 0.000000000000000000, -1.000000000000000000 ) ) ;
#101 = VERTEX_POINT ( 'NONE', #117 ) ;
#102 = DIRECTION ( 'NONE',  ( 8.659560562354932858E-17, -0.7071067811865474617, 0.7071067811865474617 ) ) ;
#103 = ORIENTED_EDGE ( 'NONE', *, *, #246, .F. ) ;
#104 = CARTESIAN_POINT ( 'NONE',  ( 0.000000000000000000, 0.1900000000000000855, 0.000000000000000000 ) ) ;
#105 = EDGE_CURVE ( 'NONE', #235, #63, #344, .T. ) ;
#106 = FACE_OUTER_BOUND ( 'NONE', #196, .T. ) ;
#107 = CARTESIAN_POINT ( 'NONE',  ( 7.654042494670957853E-17, 0.009999999999999622038, 0.6250000000000000000 ) ) ;
#108 = CYLINDRICAL_SURFACE ( 'NONE', #351, 0.6250000000000000000 ) ;
#109 = DIRECTION ( 'NONE',  ( -0.000000000000000000, -1.000000000000000000, -0.000000000000000000 ) ) ;
#110 = EDGE_CURVE ( 'NONE', #278, #397, #337, .T. ) ;
#111 = CARTESIAN_POINT ( 'NONE',  ( 0.000000000000000000, 0.1900000000000002243, 0.000000000000000000 ) ) ;
#112 = PRODUCT_RELATED_PRODUCT_CATEGORY ( 'part', '', ( #208 ) ) ;
#113 = CARTESIAN_POINT ( 'NONE',  ( 6.894761479199596848E-17, 0.01000000000000023613, 0.5629999999999999449 ) ) ;
#114 = APPLICATION_PROTOCOL_DEFINITION ( 'draft international standard', 'automotive_design', 1998, #365 ) ;
#115 = CARTESIAN_POINT ( 'NONE',  ( 6.894761479199596848E-17, 0.01000000000000023613, 0.5629999999999999449 ) ) ;
#116 = ADVANCED_FACE ( 'NONE', ( #240 ), #303, .T. ) ;
#117 = CARTESIAN_POINT ( 'NONE',  ( 0.000000000000000000, 0.009999999999999622038, -0.6250000000000000000 ) ) ;
#118 = ORIENTED_EDGE ( 'NONE', *, *, #105, .F. ) ;
#119 = AXIS2_PLACEMENT_3D ( 'NONE', #218, #309, #348 ) ;
#120 = DIRECTION ( 'NONE',  ( 0.000000000000000000, -1.000000000000000000, 0.000000000000000000 ) ) ;
#121 = VERTEX_POINT ( 'NONE', #53 ) ;
#122 = PRESENTATION_STYLE_ASSIGNMENT (( #262 ) ) ;
#123 = ORIENTED_EDGE ( 'NONE', *, *, #385, .F. ) ;
#124 = ADVANCED_FACE ( 'NONE', ( #342 ), #254, .T. ) ;
#125 = ORIENTED_EDGE ( 'NONE', *, *, #140, .T. ) ;
#126 = DIRECTION ( 'NONE',  ( -0.000000000000000000, -1.000000000000000000, -0.000000000000000000 ) ) ;
#127 = EDGE_LOOP ( 'NONE', ( #162, #32, #99, #232 ) ) ;
#128 = CARTESIAN_POINT ( 'NONE',  ( 6.894761479199596848E-17, 0.1900000000000002243, 0.5629999999999999449 ) ) ;
#129 = ORIENTED_EDGE ( 'NONE', *, *, #302, .T. ) ;
#130 = SURFACE_SIDE_STYLE ('',( #15 ) ) ;
#131 = VERTEX_POINT ( 'NONE', #374 ) ;
#132 = DIRECTION ( 'NONE',  ( 1.000000000000000000, 0.000000000000000000, 0.000000000000000000 ) ) ;
#133 = AXIS2_PLACEMENT_3D ( 'NONE', #360, #75, #387 ) ;
#134 = PRODUCT_DEFINITION ( 'UNKNOWN', '', #188, #83 ) ;
#135 = ORIENTED_EDGE ( 'NONE', *, *, #151, .T. ) ;
#136 = CYLINDRICAL_SURFACE ( 'NONE', #234, 0.6250000000000000000 ) ;
#137 = ORIENTED_EDGE ( 'NONE', *, *, #209, .T. ) ;
#138 = DIRECTION ( 'NONE',  ( 0.000000000000000000, 0.000000000000000000, -1.000000000000000000 ) ) ;
#139 = DIRECTION ( 'NONE',  ( 0.000000000000000000, 0.000000000000000000, 1.000000000000000000 ) ) ;
#140 = EDGE_CURVE ( 'NONE', #235, #278, #70, .T. ) ;
#141 = CARTESIAN_POINT ( 'NONE',  ( 0.000000000000000000, 0.000000000000000000, 0.000000000000000000 ) ) ;
#142 = VECTOR ( 'NONE', #231, 39.37007874015748854 ) ;
#143 = CARTESIAN_POINT ( 'NONE',  ( 0.000000000000000000, 0.1900000000000000855, -0.6250000000000000000 ) ) ;
#144 = DIRECTION ( 'NONE',  ( 0.000000000000000000, 0.000000000000000000, 1.000000000000000000 ) ) ;
#145 = CARTESIAN_POINT ( 'NONE',  ( 0.000000000000000000, 0.009999999999999622038, 0.000000000000000000 ) ) ;
#146 = CONICAL_SURFACE ( 'NONE', #283, 0.5729999999999995097, 0.7853981633974380649 ) ;
#147 = CIRCLE ( 'NONE', #405, 0.6250000000000000000 ) ;
#148 = VECTOR ( 'NONE', #226, 39.37007874015748854 ) ;
#149 = DIRECTION ( 'NONE',  ( 0.000000000000000000, 0.000000000000000000, -1.000000000000000000 ) ) ;
#150 = ORIENTED_EDGE ( 'NONE', *, *, #92, .F. ) ;
#151 = EDGE_CURVE ( 'NONE', #184, #121, #175, .T. ) ;
#152 = CARTESIAN_POINT ( 'NONE',  ( 7.017226159114326967E-17, 0.1999999999999999833, -0.5729999999999995097 ) ) ;
#153 = LINE ( 'NONE', #358, #178 ) ;
#154 = ORIENTED_EDGE ( 'NONE', *, *, #56, .F. ) ;
#155 = AXIS2_PLACEMENT_3D ( 'NONE', #104, #372, #138 ) ;
#156 = DIRECTION ( 'NONE',  ( 0.000000000000000000, 0.000000000000000000, -1.000000000000000000 ) ) ;
#157 = ORIENTED_EDGE ( 'NONE', *, *, #159, .T. ) ;
#158 = CARTESIAN_POINT ( 'NONE',  ( 0.000000000000000000, 1.111524659297021438E-18, 0.6150000000000001021 ) ) ;
#159 = EDGE_CURVE ( 'NONE', #184, #288, #243, .T. ) ;
#160 = ORIENTED_EDGE ( 'NONE', *, *, #177, .F. ) ;
#161 = DIRECTION ( 'NONE',  ( 0.000000000000000000, -1.000000000000000000, 0.000000000000000000 ) ) ;
#162 = ORIENTED_EDGE ( 'NONE', *, *, #48, .T. ) ;
#163 = DIRECTION ( 'NONE',  ( 0.000000000000000000, 1.000000000000000000, 0.000000000000000000 ) ) ;
#164 = CARTESIAN_POINT ( 'NONE',  ( 2.203103220696987015E-16, 0.1999999999999999833, 0.000000000000000000 ) ) ;
#165 =( NAMED_UNIT ( * ) PLANE_ANGLE_UNIT ( ) SI_UNIT ( $, .RADIAN. ) );
#166 = DIRECTION ( 'NONE',  ( -0.000000000000000000, -1.000000000000000000, -0.000000000000000000 ) ) ;
#167 = CIRCLE ( 'NONE', #221, 0.5729999999999995097 ) ;
#168 = DIRECTION ( 'NONE',  ( 0.000000000000000000, 1.000000000000000000, 0.000000000000000000 ) ) ;
#169 = CIRCLE ( 'NONE', #45, 0.5629999999999999449 ) ;
#170 = ORIENTED_EDGE ( 'NONE', *, *, #207, .T. ) ;
#171 = DIRECTION ( 'NONE',  ( 0.000000000000000000, 0.000000000000000000, -1.000000000000000000 ) ) ;
#172 = CARTESIAN_POINT ( 'NONE',  ( 0.000000000000000000, 1.111524659297021438E-18, 0.000000000000000000 ) ) ;
#173 = CARTESIAN_POINT ( 'NONE',  ( 6.894761479199596848E-17, 0.000000000000000000, 0.5629999999999999449 ) ) ;
#174 = CARTESIAN_POINT ( 'NONE',  ( 0.000000000000000000, 1.111524659297021438E-18, 0.6150000000000001021 ) ) ;
#175 = CIRCLE ( 'NONE', #4, 0.6150000000000001021 ) ;
#176 = DIRECTION ( 'NONE',  ( 0.000000000000000000, -0.7071067811865474617, -0.7071067811865474617 ) ) ;
#177 = EDGE_CURVE ( 'NONE', #42, #36, #2, .T. ) ;
#178 = VECTOR ( 'NONE', #102, 39.37007874015748854 ) ;
#179 = DIRECTION ( 'NONE',  ( 0.000000000000000000, 0.000000000000000000, -1.000000000000000000 ) ) ;
#180 = EDGE_CURVE ( 'NONE', #121, #184, #183, .T. ) ;
#181 = EDGE_LOOP ( 'NONE', ( #389, #29 ) ) ;
#182 = CARTESIAN_POINT ( 'NONE',  ( 0.000000000000000000, 1.111524659297021438E-18, 0.000000000000000000 ) ) ;
#183 = CIRCLE ( 'NONE', #17, 0.6150000000000001021 ) ;
#184 = VERTEX_POINT ( 'NONE', #62 ) ;
#185 =( NAMED_UNIT ( * ) PLANE_ANGLE_UNIT ( ) SI_UNIT ( $, .RADIAN. ) );
#186 = EDGE_LOOP ( 'NONE', ( #227, #326, #282, #65 ) ) ;
#187 = ADVANCED_BREP_SHAPE_REPRESENTATION ( 'SP4006', ( #311, #55 ), #346 ) ;
#188 = PRODUCT_DEFINITION_FORMATION_WITH_SPECIFIED_SOURCE ( 'ANY', '', #208, .NOT_KNOWN. ) ;
#189 = FACE_OUTER_BOUND ( 'NONE', #297, .T. ) ;
#190 = ORIENTED_EDGE ( 'NONE', *, *, #391, .F. ) ;
#191 = CARTESIAN_POINT ( 'NONE',  ( 7.654042494670957853E-17, 0.000000000000000000, 0.6250000000000000000 ) ) ;
#192 = EDGE_CURVE ( 'NONE', #288, #101, #24, .T. ) ;
#193 = FACE_BOUND ( 'NONE', #181, .T. ) ;
#194 = AXIS2_PLACEMENT_3D ( 'NONE', #329, #298, #399 ) ;
#195 = CARTESIAN_POINT ( 'NONE',  ( 7.592810154713589096E-17, 1.111524659297021438E-18, -0.6150000000000001021 ) ) ;
#196 = EDGE_LOOP ( 'NONE', ( #89, #170, #217, #160 ) ) ;
#197 = CARTESIAN_POINT ( 'NONE',  ( 0.000000000000000000, 0.009999999999999622038, 0.000000000000000000 ) ) ;
#198 = PLANE ( 'NONE',  #270 ) ;
#199 = CLOSED_SHELL ( 'NONE', ( #378, #376, #116, #33, #398, #25, #369, #14, #345, #296, #339, #124, #84, #314 ) ) ;
#200 =( NAMED_UNIT ( * ) SI_UNIT ( $, .STERADIAN. ) SOLID_ANGLE_UNIT ( ) );
#201 = AXIS2_PLACEMENT_3D ( 'NONE', #325, #98, #31 ) ;
#202 = ORIENTED_EDGE ( 'NONE', *, *, #320, .T. ) ;
#203 = DIRECTION ( 'NONE',  ( -0.000000000000000000, -1.000000000000000000, -0.000000000000000000 ) ) ;
#204 = CARTESIAN_POINT ( 'NONE',  ( 0.000000000000000000, 0.1999999999999999833, 0.000000000000000000 ) ) ;
#205 = CARTESIAN_POINT ( 'NONE',  ( 0.000000000000000000, 0.1999999999999999833, 0.000000000000000000 ) ) ;
#206 = CIRCLE ( 'NONE', #287, 0.6250000000000000000 ) ;
#207 = EDGE_CURVE ( 'NONE', #63, #68, #370, .T. ) ;
#208 = PRODUCT ( 'SP4006', 'SP4006', '', ( #403 ) ) ;
#209 = EDGE_CURVE ( 'NONE', #395, #362, #38, .T. ) ;
#210 = DIRECTION ( 'NONE',  ( 0.000000000000000000, 1.000000000000000000, 0.000000000000000000 ) ) ;
#211 = CONICAL_SURFACE ( 'NONE', #338, 0.5729999999999995097, 0.7853981633974380649 ) ;
#212 = VECTOR ( 'NONE', #286, 39.37007874015748143 ) ;
#213 = ORIENTED_EDGE ( 'NONE', *, *, #67, .F. ) ;
#214 = DIRECTION ( 'NONE',  ( -0.000000000000000000, -1.000000000000000000, -0.000000000000000000 ) ) ;
#215 = APPLICATION_CONTEXT ( 'automotive_design' ) ;
#216 = AXIS2_PLACEMENT_3D ( 'NONE', #111, #394, #294 ) ;
#217 = ORIENTED_EDGE ( 'NONE', *, *, #39, .F. ) ;
#218 = CARTESIAN_POINT ( 'NONE',  ( 0.000000000000000000, 1.111524659297021438E-18, 0.000000000000000000 ) ) ;
#219 = ORIENTED_EDGE ( 'NONE', *, *, #274, .F. ) ;
#220 = CARTESIAN_POINT ( 'NONE',  ( 0.000000000000000000, 0.1900000000000002243, -0.5629999999999999449 ) ) ;
#221 = AXIS2_PLACEMENT_3D ( 'NONE', #91, #214, #149 ) ;
#222 = ORIENTED_EDGE ( 'NONE', *, *, #8, .F. ) ;
#223 = AXIS2_PLACEMENT_3D ( 'NONE', #291, #242, #100 ) ;
#224 = CARTESIAN_POINT ( 'NONE',  ( 0.000000000000000000, 0.1900000000000000855, 0.000000000000000000 ) ) ;
#225 = ORIENTED_EDGE ( 'NONE', *, *, #48, .F. ) ;
#226 = DIRECTION ( 'NONE',  ( 8.659560562355051187E-17, 0.7071067811865378028, -0.7071067811865571207 ) ) ;
#227 = ORIENTED_EDGE ( 'NONE', *, *, #391, .T. ) ;
#228 = DIRECTION ( 'NONE',  ( 0.000000000000000000, -1.000000000000000000, 0.000000000000000000 ) ) ;
#229 = EDGE_CURVE ( 'NONE', #63, #42, #169, .T. ) ;
#230 = CARTESIAN_POINT ( 'NONE',  ( 0.000000000000000000, 0.000000000000000000, -0.5629999999999999449 ) ) ;
#231 = DIRECTION ( 'NONE',  ( 0.000000000000000000, 0.7071067811865378028, 0.7071067811865571207 ) ) ;
#232 = ORIENTED_EDGE ( 'NONE', *, *, #192, .F. ) ;
#233 =( CONVERSION_BASED_UNIT ( 'INCH', #76 ) LENGTH_UNIT ( ) NAMED_UNIT ( #259 ) );
#234 = AXIS2_PLACEMENT_3D ( 'NONE', #141, #236, #171 ) ;
#235 = VERTEX_POINT ( 'NONE', #128 ) ;
#236 = DIRECTION ( 'NONE',  ( -0.000000000000000000, -1.000000000000000000, -0.000000000000000000 ) ) ;
#237 = DIRECTION ( 'NONE',  ( 0.000000000000000000, -1.000000000000000000, 0.000000000000000000 ) ) ;
#238 = EDGE_CURVE ( 'NONE', #121, #363, #153, .T. ) ;
#239 = CIRCLE ( 'NONE', #401, 0.5730000000000001759 ) ;
#240 = FACE_OUTER_BOUND ( 'NONE', #357, .T. ) ;
#241 =( LENGTH_UNIT ( ) NAMED_UNIT ( * ) SI_UNIT ( $, .METRE. ) );
#242 = DIRECTION ( 'NONE',  ( -0.000000000000000000, -1.000000000000000000, -0.000000000000000000 ) ) ;
#243 = LINE ( 'NONE', #143, #316 ) ;
#244 = CIRCLE ( 'NONE', #133, 0.5729999999999995097 ) ;
#245 = AXIS2_PLACEMENT_3D ( 'NONE', #47, #20, #52 ) ;
#246 = EDGE_CURVE ( 'NONE', #395, #355, #69, .T. ) ;
#247 = CARTESIAN_POINT ( 'NONE',  ( 0.000000000000000000, 0.01000000000000023613, -0.5629999999999999449 ) ) ;
#248 = CIRCLE ( 'NONE', #26, 0.5730000000000001759 ) ;
#249 = EDGE_LOOP ( 'NONE', ( #135, #261 ) ) ;
#250 = DIRECTION ( 'NONE',  ( 0.000000000000000000, 1.000000000000000000, 0.000000000000000000 ) ) ;
#251 = ORIENTED_EDGE ( 'NONE', *, *, #39, .T. ) ;
#252 = CIRCLE ( 'NONE', #396, 0.6250000000000000000 ) ;
#253 = ORIENTED_EDGE ( 'NONE', *, *, #258, .T. ) ;
#254 = CONICAL_SURFACE ( 'NONE', #119, 0.6150000000000001021, 0.7853981633974619347 ) ;
#255 = ORIENTED_EDGE ( 'NONE', *, *, #308, .F. ) ;
#256 = DIRECTION ( 'NONE',  ( 0.000000000000000000, 0.000000000000000000, -1.000000000000000000 ) ) ;
#257 = EDGE_LOOP ( 'NONE', ( #251, #129 ) ) ;
#258 = EDGE_CURVE ( 'NONE', #362, #395, #332, .T. ) ;
#259 = DIMENSIONAL_EXPONENTS ( 1.000000000000000000, 0.000000000000000000, 0.000000000000000000, 0.000000000000000000, 0.000000000000000000, 0.000000000000000000, 0.000000000000000000 ) ;
#260 = DIRECTION ( 'NONE',  ( -0.000000000000000000, -1.000000000000000000, -0.000000000000000000 ) ) ;
#261 = ORIENTED_EDGE ( 'NONE', *, *, #180, .T. ) ;
#262 = SURFACE_STYLE_USAGE ( .BOTH. , #130 ) ;
#263 = ORIENTED_EDGE ( 'NONE', *, *, #177, .T. ) ;
#264 = AXIS2_PLACEMENT_3D ( 'NONE', #182, #301, #299 ) ;
#265 = LINE ( 'NONE', #230, #367 ) ;
#266 = DIRECTION ( 'NONE',  ( -0.000000000000000000, 1.000000000000000000, -0.000000000000000000 ) ) ;
#267 = DIRECTION ( 'NONE',  ( -0.000000000000000000, -1.000000000000000000, -0.000000000000000000 ) ) ;
#268 = CARTESIAN_POINT ( 'NONE',  ( 7.017226159114326967E-17, 0.1999999999999999833, -0.5729999999999995097 ) ) ;
#269 = DIRECTION ( 'NONE',  ( 8.659560562354844111E-17, 0.7071067811865547892, -0.7071067811865402453 ) ) ;
#270 = AXIS2_PLACEMENT_3D ( 'NONE', #164, #328, #44 ) ;
#271 = CYLINDRICAL_SURFACE ( 'NONE', #194, 0.5629999999999999449 ) ;
#272 = PRESENTATION_LAYER_ASSIGNMENT (  '', '', ( #341 ) ) ;
#273 = CARTESIAN_POINT ( 'NONE',  ( 0.000000000000000000, 0.1999999999999999833, 0.000000000000000000 ) ) ;
#274 = EDGE_CURVE ( 'NONE', #363, #355, #315, .T. ) ;
#275 = DIRECTION ( 'NONE',  ( 0.000000000000000000, 1.000000000000000000, 0.000000000000000000 ) ) ;
#276 = AXIS2_PLACEMENT_3D ( 'NONE', #12, #260, #64 ) ;
#277 = DIRECTION ( 'NONE',  ( 0.000000000000000000, -0.7071067811865474617, -0.7071067811865474617 ) ) ;
#278 = VERTEX_POINT ( 'NONE', #220 ) ;
#279 = FACE_OUTER_BOUND ( 'NONE', #46, .T. ) ;
#280 = EDGE_LOOP ( 'NONE', ( #255, #393, #349, #154 ) ) ;
#281 = CARTESIAN_POINT ( 'NONE',  ( 7.531577814756222803E-17, 1.111524659297021438E-18, -0.6150000000000001021 ) ) ;
#282 = ORIENTED_EDGE ( 'NONE', *, *, #229, .T. ) ;
#283 = AXIS2_PLACEMENT_3D ( 'NONE', #204, #266, #333 ) ;
#284 = DIRECTION ( 'NONE',  ( 0.000000000000000000, 0.000000000000000000, -1.000000000000000000 ) ) ;
#285 = ORIENTED_EDGE ( 'NONE', *, *, #207, .F. ) ;
#286 = DIRECTION ( 'NONE',  ( -0.000000000000000000, -1.000000000000000000, -0.000000000000000000 ) ) ;
#287 = AXIS2_PLACEMENT_3D ( 'NONE', #145, #275, #404 ) ;
#288 = VERTEX_POINT ( 'NONE', #361 ) ;
#289 = CONICAL_SURFACE ( 'NONE', #96, 0.6250000000000000000, 0.7853981633974482790 ) ;
#290 = DIRECTION ( 'NONE',  ( 0.000000000000000000, 0.000000000000000000, -1.000000000000000000 ) ) ;
#291 = CARTESIAN_POINT ( 'NONE',  ( 0.000000000000000000, 1.111524659297021438E-18, 0.000000000000000000 ) ) ;
#292 = FILL_AREA_STYLE ('',( #34 ) ) ;
#293 = DIRECTION ( 'NONE',  ( 0.000000000000000000, 0.000000000000000000, -1.000000000000000000 ) ) ;
#294 = DIRECTION ( 'NONE',  ( 0.000000000000000000, 0.000000000000000000, -1.000000000000000000 ) ) ;
#295 = ORIENTED_EDGE ( 'NONE', *, *, #238, .F. ) ;
#296 = ADVANCED_FACE ( 'NONE', ( #318, #9 ), #388, .T. ) ;
#297 = EDGE_LOOP ( 'NONE', ( #285, #71, #263, #86 ) ) ;
#298 = DIRECTION ( 'NONE',  ( -0.000000000000000000, -1.000000000000000000, -0.000000000000000000 ) ) ;
#299 = DIRECTION ( 'NONE',  ( 0.000000000000000000, 0.000000000000000000, 1.000000000000000000 ) ) ;
#300 = FACE_OUTER_BOUND ( 'NONE', #18, .T. ) ;
#301 = DIRECTION ( 'NONE',  ( 0.000000000000000000, 1.000000000000000000, 0.000000000000000000 ) ) ;
#302 = EDGE_CURVE ( 'NONE', #68, #36, #239, .T. ) ;
#303 = CONICAL_SURFACE ( 'NONE', #264, 0.6150000000000001021, 0.7853981633974619347 ) ;
#304 = FACE_OUTER_BOUND ( 'NONE', #186, .T. ) ;
#305 = CARTESIAN_POINT ( 'NONE',  ( 0.000000000000000000, 0.1900000000000002243, 0.000000000000000000 ) ) ;
#306 = CONICAL_SURFACE ( 'NONE', #155, 0.6250000000000000000, 0.7853981633974482790 ) ;
#307 = AXIS2_PLACEMENT_3D ( 'NONE', #322, #161, #290 ) ;
#308 = EDGE_CURVE ( 'NONE', #362, #101, #354, .T. ) ;
#309 = DIRECTION ( 'NONE',  ( 0.000000000000000000, 1.000000000000000000, 0.000000000000000000 ) ) ;
#310 = ORIENTED_EDGE ( 'NONE', *, *, #151, .F. ) ;
#311 = MANIFOLD_SOLID_BREP ( 'Chamfer2', #199 ) ;
#312 = CARTESIAN_POINT ( 'NONE',  ( 0.000000000000000000, 0.1999999999999999833, 0.000000000000000000 ) ) ;
#313 = ORIENTED_EDGE ( 'NONE', *, *, #67, .T. ) ;
#314 = ADVANCED_FACE ( 'NONE', ( #35 ), #289, .T. ) ;
#315 = LINE ( 'NONE', #191, #212 ) ;
#316 = VECTOR ( 'NONE', #277, 39.37007874015748854 ) ;
#317 = ORIENTED_EDGE ( 'NONE', *, *, #110, .T. ) ;
#318 = FACE_BOUND ( 'NONE', #257, .T. ) ;
#319 = ORIENTED_EDGE ( 'NONE', *, *, #258, .F. ) ;
#320 = EDGE_CURVE ( 'NONE', #235, #131, #386, .T. ) ;
#321 = EDGE_LOOP ( 'NONE', ( #137, #253 ) ) ;
#322 = CARTESIAN_POINT ( 'NONE',  ( 0.000000000000000000, 0.01000000000000023613, 0.000000000000000000 ) ) ;
#323 = ORIENTED_EDGE ( 'NONE', *, *, #320, .F. ) ;
#324 = MECHANICAL_DESIGN_GEOMETRIC_PRESENTATION_REPRESENTATION (  '', ( #341 ), #384 ) ;
#325 = CARTESIAN_POINT ( 'NONE',  ( 9.717505120676822460E-35, 1.111524659297021438E-18, 0.000000000000000000 ) ) ;
#326 = ORIENTED_EDGE ( 'NONE', *, *, #105, .T. ) ;
#327 = CARTESIAN_POINT ( 'NONE',  ( 7.654042494670957853E-17, 0.1900000000000000855, 0.6250000000000000000 ) ) ;
#328 = DIRECTION ( 'NONE',  ( 0.000000000000000000, -1.000000000000000000, -0.000000000000000000 ) ) ;
#329 = CARTESIAN_POINT ( 'NONE',  ( 0.000000000000000000, 0.000000000000000000, 0.000000000000000000 ) ) ;
#330 = DIMENSIONAL_EXPONENTS ( 1.000000000000000000, 0.000000000000000000, 0.000000000000000000, 0.000000000000000000, 0.000000000000000000, 0.000000000000000000, 0.000000000000000000 ) ;
#331 = CARTESIAN_POINT ( 'NONE',  ( 0.000000000000000000, 0.01000000000000023613, 0.000000000000000000 ) ) ;
#332 = CIRCLE ( 'NONE', #276, 0.6150000000000001021 ) ;
#333 = DIRECTION ( 'NONE',  ( 0.000000000000000000, 0.000000000000000000, 1.000000000000000000 ) ) ;
#334 = FACE_OUTER_BOUND ( 'NONE', #249, .T. ) ;
#335 = APPLICATION_PROTOCOL_DEFINITION ( 'draft international standard', 'automotive_design', 1998, #215 ) ;
#336 = DIRECTION ( 'NONE',  ( -0.000000000000000000, -1.000000000000000000, -0.000000000000000000 ) ) ;
#337 = LINE ( 'NONE', #152, #383 ) ;
#338 = AXIS2_PLACEMENT_3D ( 'NONE', #205, #51, #139 ) ;
#339 = ADVANCED_FACE ( 'NONE', ( #189 ), #77, .F. ) ;
#340 = CIRCLE ( 'NONE', #54, 0.6250000000000000000 ) ;
#341 = STYLED_ITEM ( 'NONE', ( #122 ), #311 ) ;
#342 = FACE_OUTER_BOUND ( 'NONE', #280, .T. ) ;
#343 = EDGE_LOOP ( 'NONE', ( #295, #310, #157, #213 ) ) ;
#344 = LINE ( 'NONE', #173, #87 ) ;
#345 = ADVANCED_FACE ( 'NONE', ( #300 ), #74, .F. ) ;
#346 =( GEOMETRIC_REPRESENTATION_CONTEXT ( 3 ) GLOBAL_UNCERTAINTY_ASSIGNED_CONTEXT ( ( #371 ) ) GLOBAL_UNIT_ASSIGNED_CONTEXT ( ( #233, #165, #200 ) ) REPRESENTATION_CONTEXT ( 'NONE', 'WORKASPACE' ) );
#347 = EDGE_LOOP ( 'NONE', ( #219, #313, #7, #380 ) ) ;
#348 = DIRECTION ( 'NONE',  ( 0.000000000000000000, 0.000000000000000000, 1.000000000000000000 ) ) ;
#349 = ORIENTED_EDGE ( 'NONE', *, *, #246, .T. ) ;
#350 =( LENGTH_UNIT ( ) NAMED_UNIT ( * ) SI_UNIT ( $, .METRE. ) );
#351 = AXIS2_PLACEMENT_3D ( 'NONE', #19, #166, #293 ) ;
#352 = VECTOR ( 'NONE', #79, 39.37007874015748854 ) ;
#353 = ORIENTED_EDGE ( 'NONE', *, *, #180, .F. ) ;
#354 = LINE ( 'NONE', #281, #148 ) ;
#355 = VERTEX_POINT ( 'NONE', #107 ) ;
#356 = CARTESIAN_POINT ( 'NONE',  ( 0.000000000000000000, 0.1999999999999999833, 0.5729999999999995097 ) ) ;
#357 = EDGE_LOOP ( 'NONE', ( #319, #377, #123, #103 ) ) ;
#358 = CARTESIAN_POINT ( 'NONE',  ( 7.654042494670957853E-17, 0.1900000000000000855, 0.6250000000000000000 ) ) ;
#359 = AXIS2_PLACEMENT_3D ( 'NONE', #305, #60, #28 ) ;
#360 = CARTESIAN_POINT ( 'NONE',  ( 0.000000000000000000, 0.1999999999999999833, 0.000000000000000000 ) ) ;
#361 = CARTESIAN_POINT ( 'NONE',  ( 0.000000000000000000, 0.1900000000000000855, -0.6250000000000000000 ) ) ;
#362 = VERTEX_POINT ( 'NONE', #195 ) ;
#363 = VERTEX_POINT ( 'NONE', #327 ) ;
#364 = CARTESIAN_POINT ( 'NONE',  ( 0.000000000000000000, 0.000000000000000000, 0.000000000000000000 ) ) ;
#365 = APPLICATION_CONTEXT ( 'automotive_design' ) ;
#366 = DIRECTION ( 'NONE',  ( 0.000000000000000000, 0.000000000000000000, -1.000000000000000000 ) ) ;
#367 = VECTOR ( 'NONE', #267, 39.37007874015748143 ) ;
#368 = VECTOR ( 'NONE', #88, 39.37007874015748143 ) ;
#369 = ADVANCED_FACE ( 'NONE', ( #80 ), #136, .T. ) ;
#370 = LINE ( 'NONE', #113, #352 ) ;
#371 = UNCERTAINTY_MEASURE_WITH_UNIT (LENGTH_MEASURE( 1.000000000000000082E-05 ), #233, 'distance_accuracy_value', 'NONE');
#372 = DIRECTION ( 'NONE',  ( -0.000000000000000000, -1.000000000000000000, -0.000000000000000000 ) ) ;
#373 = CARTESIAN_POINT ( 'NONE',  ( 0.000000000000000000, 0.1900000000000000855, 0.000000000000000000 ) ) ;
#374 = CARTESIAN_POINT ( 'NONE',  ( 0.000000000000000000, 0.1999999999999999833, 0.5729999999999995097 ) ) ;
#375 = VECTOR ( 'NONE', #176, 39.37007874015748854 ) ;
#376 = ADVANCED_FACE ( 'NONE', ( #22 ), #146, .F. ) ;
#377 = ORIENTED_EDGE ( 'NONE', *, *, #308, .T. ) ;
#378 = ADVANCED_FACE ( 'NONE', ( #43 ), #306, .T. ) ;
#379 = CARTESIAN_POINT ( 'NONE',  ( 0.000000000000000000, 0.000000000000000000, -0.6250000000000000000 ) ) ;
#380 = ORIENTED_EDGE ( 'NONE', *, *, #56, .T. ) ;
#381 = CARTESIAN_POINT ( 'NONE',  ( 0.000000000000000000, 0.01000000000000023613, -0.5629999999999999449 ) ) ;
#382 = LENGTH_MEASURE_WITH_UNIT ( LENGTH_MEASURE( 0.02539999999999999897 ), #350 );
#383 = VECTOR ( 'NONE', #269, 39.37007874015748143 ) ;
#384 =( GEOMETRIC_REPRESENTATION_CONTEXT ( 3 ) GLOBAL_UNCERTAINTY_ASSIGNED_CONTEXT ( ( #57 ) ) GLOBAL_UNIT_ASSIGNED_CONTEXT ( ( #390, #185, #97 ) ) REPRESENTATION_CONTEXT ( 'NONE', 'WORKASPACE' ) );
#385 = EDGE_CURVE ( 'NONE', #355, #101, #252, .T. ) ;
#386 = LINE ( 'NONE', #356, #27 ) ;
#387 = DIRECTION ( 'NONE',  ( 0.000000000000000000, 0.000000000000000000, -1.000000000000000000 ) ) ;
#388 = PLANE ( 'NONE',  #201 ) ;
#389 = ORIENTED_EDGE ( 'NONE', *, *, #8, .T. ) ;
#390 =( CONVERSION_BASED_UNIT ( 'INCH', #382 ) LENGTH_UNIT ( ) NAMED_UNIT ( #330 ) );
#391 = EDGE_CURVE ( 'NONE', #278, #235, #90, .T. ) ;
#392 = CONICAL_SURFACE ( 'NONE', #37, 0.5629999999999999449, 0.7853981633974482790 ) ;
#393 = ORIENTED_EDGE ( 'NONE', *, *, #209, .F. ) ;
#394 = DIRECTION ( 'NONE',  ( -0.000000000000000000, 1.000000000000000000, -0.000000000000000000 ) ) ;
#395 = VERTEX_POINT ( 'NONE', #174 ) ;
#396 = AXIS2_PLACEMENT_3D ( 'NONE', #197, #168, #72 ) ;
#397 = VERTEX_POINT ( 'NONE', #268 ) ;
#398 = ADVANCED_FACE ( 'NONE', ( #304 ), #271, .F. ) ;
#399 = DIRECTION ( 'NONE',  ( 0.000000000000000000, 0.000000000000000000, -1.000000000000000000 ) ) ;
#400 = DIRECTION ( 'NONE',  ( 0.000000000000000000, 1.000000000000000000, 0.000000000000000000 ) ) ;
#401 = AXIS2_PLACEMENT_3D ( 'NONE', #41, #163, #284 ) ;
#402 = DIRECTION ( 'NONE',  ( 0.000000000000000000, 0.000000000000000000, -1.000000000000000000 ) ) ;
#403 = PRODUCT_CONTEXT ( 'NONE', #215, 'mechanical' ) ;
#404 = DIRECTION ( 'NONE',  ( 0.000000000000000000, 0.000000000000000000, -1.000000000000000000 ) ) ;
#405 = AXIS2_PLACEMENT_3D ( 'NONE', #82, #203, #179 ) ;
ENDSEC;
END-ISO-10303-21;
