ISO-10303-21;
HEADER;
FILE_DESCRIPTION (( 'STEP AP214' ),
    '1' );
FILE_NAME ('SP4000.STEP',
    '2025-04-23T16:01:19',
    ( '' ),
    ( '' ),
    'SwSTEP 2.0',
    'SolidWorks 2023',
    '' );
FILE_SCHEMA (( 'AUTOMOTIVE_DESIGN' ));
ENDSEC;

DATA;
#1 = LINE ( 'NONE', #376, #68 ) ;
#2 = EDGE_CURVE ( 'NONE', #298, #169, #112, .T. ) ;
#3 = CYLINDRICAL_SURFACE ( 'NONE', #261, 0.5629999999999999449 ) ;
#4 = AXIS2_PLACEMENT_3D ( 'NONE', #187, #285, #405 ) ;
#5 = VERTEX_POINT ( 'NONE', #173 ) ;
#6 = EDGE_CURVE ( 'NONE', #207, #5, #13, .T. ) ;
#7 = ORIENTED_EDGE ( 'NONE', *, *, #176, .F. ) ;
#8 = PRODUCT_DEFINITION_SHAPE ( 'NONE', 'NONE',  #244 ) ;
#9 = ORIENTED_EDGE ( 'NONE', *, *, #350, .F. ) ;
#10 = ORIENTED_EDGE ( 'NONE', *, *, #2, .T. ) ;
#11 = ORIENTED_EDGE ( 'NONE', *, *, #214, .F. ) ;
#12 = CARTESIAN_POINT ( 'NONE',  ( 0.000000000000000000, 0.009999999999999896125, 0.000000000000000000 ) ) ;
#13 = CIRCLE ( 'NONE', #272, 0.6150000000000004352 ) ;
#14 = CARTESIAN_POINT ( 'NONE',  ( 0.000000000000000000, 1.111509027537581570E-18, 0.000000000000000000 ) ) ;
#15 = AXIS2_PLACEMENT_3D ( 'NONE', #161, #255, #98 ) ;
#16 = AXIS2_PLACEMENT_3D ( 'NONE', #24, #338, #152 ) ;
#17 = EDGE_CURVE ( 'NONE', #297, #328, #20, .T. ) ;
#18 = CARTESIAN_POINT ( 'NONE',  ( 0.000000000000000000, 0.06999999999999972911, 0.000000000000000000 ) ) ;
#19 = DIRECTION ( 'NONE',  ( 0.000000000000000000, -1.000000000000000000, 0.000000000000000000 ) ) ;
#20 = CIRCLE ( 'NONE', #84, 0.5730000000000001759 ) ;
#21 = CARTESIAN_POINT ( 'NONE',  ( 7.531577814756227734E-17, 1.111509027537581570E-18, -0.6150000000000004352 ) ) ;
#22 = ORIENTED_EDGE ( 'NONE', *, *, #238, .T. ) ;
#23 = ADVANCED_FACE ( 'NONE', ( #246 ), #66, .T. ) ;
#24 = CARTESIAN_POINT ( 'NONE',  ( 0.000000000000000000, 0.06999999999999986788, 0.000000000000000000 ) ) ;
#25 = PLANE ( 'NONE',  #37 ) ;
#26 = CARTESIAN_POINT ( 'NONE',  ( 0.000000000000000000, 0.009999999999999896125, 0.000000000000000000 ) ) ;
#27 = CARTESIAN_POINT ( 'NONE',  ( 0.000000000000000000, 0.009999999999999896125, 0.000000000000000000 ) ) ;
#28 = CARTESIAN_POINT ( 'NONE',  ( 0.000000000000000000, 0.000000000000000000, 0.000000000000000000 ) ) ;
#29 = AXIS2_PLACEMENT_3D ( 'NONE', #270, #241, #364 ) ;
#30 = FACE_OUTER_BOUND ( 'NONE', #329, .T. ) ;
#31 = CARTESIAN_POINT ( 'NONE',  ( 0.000000000000000000, 0.06999999999999972911, -0.6250000000000000000 ) ) ;
#32 = DIRECTION ( 'NONE',  ( 0.000000000000000000, 0.000000000000000000, -1.000000000000000000 ) ) ;
#33 = EDGE_CURVE ( 'NONE', #227, #387, #129, .T. ) ;
#34 =( GEOMETRIC_REPRESENTATION_CONTEXT ( 3 ) GLOBAL_UNCERTAINTY_ASSIGNED_CONTEXT ( ( #77 ) ) GLOBAL_UNIT_ASSIGNED_CONTEXT ( ( #211, #333, #267 ) ) REPRESENTATION_CONTEXT ( 'NONE', 'WORKASPACE' ) );
#35 = CARTESIAN_POINT ( 'NONE',  ( 6.894761479199598081E-17, 0.009999999999999896125, 0.5629999999999999449 ) ) ;
#36 = EDGE_CURVE ( 'NONE', #339, #290, #293, .T. ) ;
#37 = AXIS2_PLACEMENT_3D ( 'NONE', #120, #130, #32 ) ;
#38 = ORIENTED_EDGE ( 'NONE', *, *, #238, .F. ) ;
#39 = AXIS2_PLACEMENT_3D ( 'NONE', #245, #279, #89 ) ;
#40 = ORIENTED_EDGE ( 'NONE', *, *, #274, .F. ) ;
#41 = ORIENTED_EDGE ( 'NONE', *, *, #232, .F. ) ;
#42 = AXIS2_PLACEMENT_3D ( 'NONE', #308, #318, #403 ) ;
#43 = VECTOR ( 'NONE', #215, 39.37007874015748143 ) ;
#44 = PRODUCT_RELATED_PRODUCT_CATEGORY ( 'part', '', ( #198 ) ) ;
#45 = ORIENTED_EDGE ( 'NONE', *, *, #289, .T. ) ;
#46 = ORIENTED_EDGE ( 'NONE', *, *, #294, .T. ) ;
#47 = ORIENTED_EDGE ( 'NONE', *, *, #17, .T. ) ;
#48 = EDGE_CURVE ( 'NONE', #5, #207, #157, .T. ) ;
#49 = FACE_OUTER_BOUND ( 'NONE', #197, .T. ) ;
#50 = CONICAL_SURFACE ( 'NONE', #218, 0.6150000000000004352, 0.7853981633974619347 ) ;
#51 = ORIENTED_EDGE ( 'NONE', *, *, #6, .T. ) ;
#52 = PRODUCT_CONTEXT ( 'NONE', #309, 'mechanical' ) ;
#53 = DIRECTION ( 'NONE',  ( 0.000000000000000000, 0.000000000000000000, -1.000000000000000000 ) ) ;
#54 = ORIENTED_EDGE ( 'NONE', *, *, #332, .T. ) ;
#55 = APPLICATION_PROTOCOL_DEFINITION ( 'draft international standard', 'automotive_design', 1998, #309 ) ;
#56 = CARTESIAN_POINT ( 'NONE',  ( 0.000000000000000000, 0.009999999999999896125, 0.000000000000000000 ) ) ;
#57 = CARTESIAN_POINT ( 'NONE',  ( 7.654042494670957853E-17, 0.000000000000000000, 0.6250000000000000000 ) ) ;
#58 = AXIS2_PLACEMENT_3D ( 'NONE', #28, #221, #121 ) ;
#59 = PRODUCT_DEFINITION_FORMATION_WITH_SPECIFIED_SOURCE ( 'ANY', '', #198, .NOT_KNOWN. ) ;
#60 = FILL_AREA_STYLE_COLOUR ( '', #142 ) ;
#61 = ADVANCED_BREP_SHAPE_REPRESENTATION ( 'SP4000', ( #239, #258 ), #34 ) ;
#62 = CARTESIAN_POINT ( 'NONE',  ( 7.654042494670957853E-17, 0.06999999999999972911, 0.6250000000000000000 ) ) ;
#63 = SURFACE_STYLE_USAGE ( .BOTH. , #186 ) ;
#64 = ADVANCED_FACE ( 'NONE', ( #237 ), #335, .F. ) ;
#65 = DIRECTION ( 'NONE',  ( 0.000000000000000000, 0.000000000000000000, -1.000000000000000000 ) ) ;
#66 = CONICAL_SURFACE ( 'NONE', #78, 0.6250000000000000000, 0.7853981633974482790 ) ;
#67 = CARTESIAN_POINT ( 'NONE',  ( 0.000000000000000000, 0.009999999999999896125, -0.5629999999999999449 ) ) ;
#68 = VECTOR ( 'NONE', #347, 39.37007874015748854 ) ;
#69 = CARTESIAN_POINT ( 'NONE',  ( 0.000000000000000000, 0.08000000000000002942, 0.000000000000000000 ) ) ;
#70 = EDGE_CURVE ( 'NONE', #292, #298, #302, .T. ) ;
#71 = ORIENTED_EDGE ( 'NONE', *, *, #214, .T. ) ;
#72 = ORIENTED_EDGE ( 'NONE', *, *, #134, .F. ) ;
#73 = CIRCLE ( 'NONE', #360, 0.6250000000000000000 ) ;
#74 = UNCERTAINTY_MEASURE_WITH_UNIT (LENGTH_MEASURE( 1.000000000000000082E-05 ), #160, 'distance_accuracy_value', 'NONE');
#75 = ORIENTED_EDGE ( 'NONE', *, *, #208, .T. ) ;
#76 = EDGE_LOOP ( 'NONE', ( #133, #384, #87, #382 ) ) ;
#77 = UNCERTAINTY_MEASURE_WITH_UNIT (LENGTH_MEASURE( 1.000000000000000082E-05 ), #211, 'distance_accuracy_value', 'NONE');
#78 = AXIS2_PLACEMENT_3D ( 'NONE', #18, #266, #369 ) ;
#79 = AXIS2_PLACEMENT_3D ( 'NONE', #317, #119, #53 ) ;
#80 = ORIENTED_EDGE ( 'NONE', *, *, #172, .T. ) ;
#81 = DIRECTION ( 'NONE',  ( 0.000000000000000000, 0.000000000000000000, -1.000000000000000000 ) ) ;
#82 = DIRECTION ( 'NONE',  ( 1.000000000000000000, 0.000000000000000000, 0.000000000000000000 ) ) ;
#83 = CARTESIAN_POINT ( 'NONE',  ( 0.000000000000000000, 0.08000000000000002942, -0.6149999999999997691 ) ) ;
#84 = AXIS2_PLACEMENT_3D ( 'NONE', #140, #337, #304 ) ;
#85 = DIRECTION ( 'NONE',  ( 0.000000000000000000, 0.000000000000000000, -1.000000000000000000 ) ) ;
#86 = EDGE_LOOP ( 'NONE', ( #259, #117, #210, #38 ) ) ;
#87 = ORIENTED_EDGE ( 'NONE', *, *, #320, .T. ) ;
#88 = LENGTH_MEASURE_WITH_UNIT ( LENGTH_MEASURE( 0.02539999999999999897 ), #118 );
#89 = DIRECTION ( 'NONE',  ( 0.000000000000000000, 0.000000000000000000, -1.000000000000000000 ) ) ;
#90 = EDGE_LOOP ( 'NONE', ( #135, #167, #75, #273 ) ) ;
#91 = CARTESIAN_POINT ( 'NONE',  ( 0.000000000000000000, 1.111509027537581570E-18, 0.000000000000000000 ) ) ;
#92 = DIRECTION ( 'NONE',  ( -0.000000000000000000, -1.000000000000000000, -0.000000000000000000 ) ) ;
#93 = VECTOR ( 'NONE', #379, 39.37007874015748143 ) ;
#94 = LINE ( 'NONE', #400, #284 ) ;
#95 = FILL_AREA_STYLE ('',( #60 ) ) ;
#96 = ADVANCED_FACE ( 'NONE', ( #299 ), #371, .F. ) ;
#97 = DIRECTION ( 'NONE',  ( 0.000000000000000000, -1.000000000000000000, 0.000000000000000000 ) ) ;
#98 = DIRECTION ( 'NONE',  ( 0.000000000000000000, 0.000000000000000000, 1.000000000000000000 ) ) ;
#99 = CARTESIAN_POINT ( 'NONE',  ( 7.017226159114335595E-17, 0.08000000000000002942, -0.5730000000000001759 ) ) ;
#100 = CARTESIAN_POINT ( 'NONE',  ( 0.000000000000000000, 0.009999999999999896125, -0.5629999999999999449 ) ) ;
#101 = DIRECTION ( 'NONE',  ( 0.000000000000000000, 0.000000000000000000, -1.000000000000000000 ) ) ;
#102 = VERTEX_POINT ( 'NONE', #83 ) ;
#103 = EDGE_LOOP ( 'NONE', ( #359, #144, #235, #228 ) ) ;
#104 = ORIENTED_EDGE ( 'NONE', *, *, #2, .F. ) ;
#105 = ORIENTED_EDGE ( 'NONE', *, *, #274, .T. ) ;
#106 = DIMENSIONAL_EXPONENTS ( 1.000000000000000000, 0.000000000000000000, 0.000000000000000000, 0.000000000000000000, 0.000000000000000000, 0.000000000000000000, 0.000000000000000000 ) ;
#107 = EDGE_LOOP ( 'NONE', ( #195, #137, #264, #213 ) ) ;
#108 = AXIS2_PLACEMENT_3D ( 'NONE', #69, #193, #319 ) ;
#109 = DIRECTION ( 'NONE',  ( 0.000000000000000000, 0.000000000000000000, -1.000000000000000000 ) ) ;
#110 = ORIENTED_EDGE ( 'NONE', *, *, #320, .F. ) ;
#111 = DIRECTION ( 'NONE',  ( 0.000000000000000000, 0.000000000000000000, -1.000000000000000000 ) ) ;
#112 = CIRCLE ( 'NONE', #200, 0.5629999999999999449 ) ;
#113 = CONICAL_SURFACE ( 'NONE', #150, 0.5730000000000001759, 0.7853981633974482790 ) ;
#114 = DIRECTION ( 'NONE',  ( 0.000000000000000000, 1.000000000000000000, 0.000000000000000000 ) ) ;
#115 = DIRECTION ( 'NONE',  ( -0.000000000000000000, -1.000000000000000000, -0.000000000000000000 ) ) ;
#116 = CYLINDRICAL_SURFACE ( 'NONE', #39, 0.6250000000000000000 ) ;
#117 = ORIENTED_EDGE ( 'NONE', *, *, #350, .T. ) ;
#118 =( LENGTH_UNIT ( ) NAMED_UNIT ( * ) SI_UNIT ( $, .METRE. ) );
#119 = DIRECTION ( 'NONE',  ( -0.000000000000000000, 1.000000000000000000, -0.000000000000000000 ) ) ;
#120 = CARTESIAN_POINT ( 'NONE',  ( 0.000000000000000000, 0.08000000000000002942, 0.000000000000000000 ) ) ;
#121 = DIRECTION ( 'NONE',  ( 0.000000000000000000, 0.000000000000000000, -1.000000000000000000 ) ) ;
#122 = LINE ( 'NONE', #248, #323 ) ;
#123 = ADVANCED_FACE ( 'NONE', ( #367, #49 ), #175, .T. ) ;
#124 = PRESENTATION_LAYER_ASSIGNMENT (  '', '', ( #192 ) ) ;
#125 = DIRECTION ( 'NONE',  ( 0.000000000000000000, 0.000000000000000000, -1.000000000000000000 ) ) ;
#126 = LINE ( 'NONE', #21, #404 ) ;
#127 = CARTESIAN_POINT ( 'NONE',  ( 0.000000000000000000, 0.08000000000000002942, 0.000000000000000000 ) ) ;
#128 = ADVANCED_FACE ( 'NONE', ( #30 ), #3, .F. ) ;
#129 = CIRCLE ( 'NONE', #357, 0.5729999999999998428 ) ;
#130 = DIRECTION ( 'NONE',  ( 0.000000000000000000, -1.000000000000000000, -0.000000000000000000 ) ) ;
#131 = CONICAL_SURFACE ( 'NONE', #184, 0.6250000000000000000, 0.7853981633974482790 ) ;
#132 = EDGE_LOOP ( 'NONE', ( #104, #171, #204, #353 ) ) ;
#133 = ORIENTED_EDGE ( 'NONE', *, *, #383, .T. ) ;
#134 = EDGE_CURVE ( 'NONE', #231, #355, #182, .T. ) ;
#135 = ORIENTED_EDGE ( 'NONE', *, *, #201, .F. ) ;
#136 = VECTOR ( 'NONE', #225, 39.37007874015748143 ) ;
#137 = ORIENTED_EDGE ( 'NONE', *, *, #48, .F. ) ;
#138 = ORIENTED_EDGE ( 'NONE', *, *, #172, .F. ) ;
#139 = ADVANCED_FACE ( 'NONE', ( #401 ), #168, .F. ) ;
#140 = CARTESIAN_POINT ( 'NONE',  ( 0.000000000000000000, 0.08000000000000002942, 0.000000000000000000 ) ) ;
#141 = VECTOR ( 'NONE', #243, 39.37007874015748143 ) ;
#142 = COLOUR_RGB ( '',0.7921568627450980005, 0.8196078431372548767, 0.9333333333333333481 ) ;
#143 = DIRECTION ( 'NONE',  ( -0.000000000000000000, -1.000000000000000000, -0.000000000000000000 ) ) ;
#144 = ORIENTED_EDGE ( 'NONE', *, *, #134, .T. ) ;
#145 = CARTESIAN_POINT ( 'NONE',  ( 0.000000000000000000, 0.06999999999999972911, 0.000000000000000000 ) ) ;
#146 = DIRECTION ( 'NONE',  ( 0.000000000000000000, 0.000000000000000000, -1.000000000000000000 ) ) ;
#147 = DIRECTION ( 'NONE',  ( -0.000000000000000000, -1.000000000000000000, -0.000000000000000000 ) ) ;
#148 = DIRECTION ( 'NONE',  ( 0.000000000000000000, 0.000000000000000000, -1.000000000000000000 ) ) ;
#149 = CARTESIAN_POINT ( 'NONE',  ( 0.000000000000000000, 0.009999999999999349687, -0.6250000000000000000 ) ) ;
#150 = AXIS2_PLACEMENT_3D ( 'NONE', #311, #381, #343 ) ;
#151 = DIRECTION ( 'NONE',  ( 0.000000000000000000, 0.000000000000000000, -1.000000000000000000 ) ) ;
#152 = DIRECTION ( 'NONE',  ( 0.000000000000000000, 0.000000000000000000, -1.000000000000000000 ) ) ;
#153 = LINE ( 'NONE', #100, #136 ) ;
#154 = EDGE_CURVE ( 'NONE', #355, #290, #283, .T. ) ;
#155 = CARTESIAN_POINT ( 'NONE',  ( 6.894761479199598081E-17, 0.06999999999999986788, 0.5629999999999999449 ) ) ;
#156 = DIRECTION ( 'NONE',  ( -0.000000000000000000, -1.000000000000000000, -0.000000000000000000 ) ) ;
#157 = CIRCLE ( 'NONE', #322, 0.6150000000000004352 ) ;
#158 =( NAMED_UNIT ( * ) SI_UNIT ( $, .STERADIAN. ) SOLID_ANGLE_UNIT ( ) );
#159 = DIRECTION ( 'NONE',  ( 0.000000000000000000, -1.000000000000000000, 0.000000000000000000 ) ) ;
#160 =( CONVERSION_BASED_UNIT ( 'INCH', #321 ) LENGTH_UNIT ( ) NAMED_UNIT ( #331 ) );
#161 = CARTESIAN_POINT ( 'NONE',  ( 0.000000000000000000, 1.111509027537581570E-18, 0.000000000000000000 ) ) ;
#162 = CARTESIAN_POINT ( 'NONE',  ( 0.000000000000000000, 1.111509027537581570E-18, -0.5729999999999998428 ) ) ;
#163 =( LENGTH_UNIT ( ) NAMED_UNIT ( * ) SI_UNIT ( $, .METRE. ) );
#164 = CIRCLE ( 'NONE', #4, 0.6250000000000000000 ) ;
#165 = ORIENTED_EDGE ( 'NONE', *, *, #48, .T. ) ;
#166 = EDGE_CURVE ( 'NONE', #387, #227, #223, .T. ) ;
#167 = ORIENTED_EDGE ( 'NONE', *, *, #312, .F. ) ;
#168 = CONICAL_SURFACE ( 'NONE', #392, 0.5629999999999999449, 0.7853981633974449483 ) ;
#169 = VERTEX_POINT ( 'NONE', #67 ) ;
#170 = AXIS2_PLACEMENT_3D ( 'NONE', #26, #97, #346 ) ;
#171 = ORIENTED_EDGE ( 'NONE', *, *, #201, .T. ) ;
#172 = EDGE_CURVE ( 'NONE', #102, #231, #306, .T. ) ;
#173 = CARTESIAN_POINT ( 'NONE',  ( 0.000000000000000000, 1.111509027537581570E-18, 0.6150000000000004352 ) ) ;
#174 = CARTESIAN_POINT ( 'NONE',  ( 6.894761479199598081E-17, 0.000000000000000000, 0.5629999999999999449 ) ) ;
#175 = PLANE ( 'NONE',  #29 ) ;
#176 = EDGE_CURVE ( 'NONE', #5, #290, #1, .T. ) ;
#177 = CARTESIAN_POINT ( 'NONE',  ( 0.000000000000000000, 1.111509027537581570E-18, 0.000000000000000000 ) ) ;
#178 = DIRECTION ( 'NONE',  ( -0.000000000000000000, -1.000000000000000000, -0.000000000000000000 ) ) ;
#179 = ORIENTED_EDGE ( 'NONE', *, *, #232, .T. ) ;
#180 = DIRECTION ( 'NONE',  ( 0.000000000000000000, 0.000000000000000000, -1.000000000000000000 ) ) ;
#181 = AXIS2_PLACEMENT_3D ( 'NONE', #56, #281, #180 ) ;
#182 = LINE ( 'NONE', #351, #363 ) ;
#183 = ADVANCED_FACE ( 'NONE', ( #252, #191 ), #25, .F. ) ;
#184 = AXIS2_PLACEMENT_3D ( 'NONE', #271, #115, #148 ) ;
#185 = CARTESIAN_POINT ( 'NONE',  ( 0.000000000000000000, 0.06999999999999972911, 0.000000000000000000 ) ) ;
#186 = SURFACE_SIDE_STYLE ('',( #374 ) ) ;
#187 = CARTESIAN_POINT ( 'NONE',  ( 0.000000000000000000, 0.009999999999999349687, 0.000000000000000000 ) ) ;
#188 = PRESENTATION_STYLE_ASSIGNMENT (( #63 ) ) ;
#189 = PRODUCT_DEFINITION_CONTEXT ( 'detailed design', #334, 'design' ) ;
#190 = CARTESIAN_POINT ( 'NONE',  ( 0.000000000000000000, 0.000000000000000000, -0.6250000000000000000 ) ) ;
#191 = FACE_OUTER_BOUND ( 'NONE', #326, .T. ) ;
#192 = STYLED_ITEM ( 'NONE', ( #188 ), #239 ) ;
#193 = DIRECTION ( 'NONE',  ( -0.000000000000000000, -1.000000000000000000, -0.000000000000000000 ) ) ;
#194 = CLOSED_SHELL ( 'NONE', ( #396, #224, #358, #268, #64, #344, #253, #183, #128, #123, #139, #196, #96, #23 ) ) ;
#195 = ORIENTED_EDGE ( 'NONE', *, *, #327, .F. ) ;
#196 = ADVANCED_FACE ( 'NONE', ( #345 ), #216, .T. ) ;
#197 = EDGE_LOOP ( 'NONE', ( #165, #51 ) ) ;
#198 = PRODUCT ( 'SP4000', 'SP4000', '', ( #52 ) ) ;
#199 = ORIENTED_EDGE ( 'NONE', *, *, #312, .T. ) ;
#200 = AXIS2_PLACEMENT_3D ( 'NONE', #12, #19, #151 ) ;
#201 = EDGE_CURVE ( 'NONE', #298, #387, #222, .T. ) ;
#202 = EDGE_LOOP ( 'NONE', ( #315, #324, #10, #41 ) ) ;
#203 = AXIS2_PLACEMENT_3D ( 'NONE', #185, #178, #65 ) ;
#204 = ORIENTED_EDGE ( 'NONE', *, *, #33, .F. ) ;
#205 = DIRECTION ( 'NONE',  ( -0.000000000000000000, -1.000000000000000000, -0.000000000000000000 ) ) ;
#206 = SHAPE_DEFINITION_REPRESENTATION ( #8, #61 ) ;
#207 = VERTEX_POINT ( 'NONE', #220 ) ;
#208 = EDGE_CURVE ( 'NONE', #169, #227, #153, .T. ) ;
#209 = DIRECTION ( 'NONE',  ( 0.000000000000000000, 0.000000000000000000, -1.000000000000000000 ) ) ;
#210 = ORIENTED_EDGE ( 'NONE', *, *, #17, .F. ) ;
#211 =( CONVERSION_BASED_UNIT ( 'INCH', #88 ) LENGTH_UNIT ( ) NAMED_UNIT ( #106 ) );
#212 =( NAMED_UNIT ( * ) PLANE_ANGLE_UNIT ( ) SI_UNIT ( $, .RADIAN. ) );
#213 = ORIENTED_EDGE ( 'NONE', *, *, #36, .F. ) ;
#214 = EDGE_CURVE ( 'NONE', #328, #297, #365, .T. ) ;
#215 = DIRECTION ( 'NONE',  ( -0.000000000000000000, -1.000000000000000000, -0.000000000000000000 ) ) ;
#216 = CONICAL_SURFACE ( 'NONE', #15, 0.6150000000000004352, 0.7853981633974619347 ) ;
#217 = DIRECTION ( 'NONE',  ( -0.000000000000000000, -1.000000000000000000, -0.000000000000000000 ) ) ;
#218 = AXIS2_PLACEMENT_3D ( 'NONE', #91, #386, #287 ) ;
#219 = CARTESIAN_POINT ( 'NONE',  ( 0.000000000000000000, 0.06999999999999986788, -0.5629999999999999449 ) ) ;
#220 = CARTESIAN_POINT ( 'NONE',  ( 7.592810154713592793E-17, 1.111509027537581570E-18, -0.6150000000000004352 ) ) ;
#221 = DIRECTION ( 'NONE',  ( -0.000000000000000000, -1.000000000000000000, -0.000000000000000000 ) ) ;
#222 = LINE ( 'NONE', #35, #93 ) ;
#223 = CIRCLE ( 'NONE', #42, 0.5729999999999998428 ) ;
#224 = ADVANCED_FACE ( 'NONE', ( #256 ), #113, .F. ) ;
#225 = DIRECTION ( 'NONE',  ( 0.000000000000000000, -0.7071067811865499042, -0.7071067811865451302 ) ) ;
#226 = CARTESIAN_POINT ( 'NONE',  ( 0.000000000000000000, 0.000000000000000000, 0.000000000000000000 ) ) ;
#227 = VERTEX_POINT ( 'NONE', #162 ) ;
#228 = ORIENTED_EDGE ( 'NONE', *, *, #289, .F. ) ;
#229 = CIRCLE ( 'NONE', #325, 0.6149999999999997691 ) ;
#230 = EDGE_LOOP ( 'NONE', ( #47, #71 ) ) ;
#231 = VERTEX_POINT ( 'NONE', #288 ) ;
#232 = EDGE_CURVE ( 'NONE', #356, #169, #280, .T. ) ;
#233 = ORIENTED_EDGE ( 'NONE', *, *, #154, .F. ) ;
#234 = MECHANICAL_DESIGN_GEOMETRIC_PRESENTATION_REPRESENTATION (  '', ( #192 ), #242 ) ;
#235 = ORIENTED_EDGE ( 'NONE', *, *, #383, .F. ) ;
#236 = DIRECTION ( 'NONE',  ( 0.000000000000000000, 0.000000000000000000, 1.000000000000000000 ) ) ;
#237 = FACE_OUTER_BOUND ( 'NONE', #202, .T. ) ;
#238 = EDGE_CURVE ( 'NONE', #292, #297, #122, .T. ) ;
#239 = MANIFOLD_SOLID_BREP ( 'Chamfer2', #194 ) ;
#240 = VECTOR ( 'NONE', #217, 39.37007874015748143 ) ;
#241 = DIRECTION ( 'NONE',  ( 0.000000000000000000, -1.000000000000000000, -0.000000000000000000 ) ) ;
#242 =( GEOMETRIC_REPRESENTATION_CONTEXT ( 3 ) GLOBAL_UNCERTAINTY_ASSIGNED_CONTEXT ( ( #74 ) ) GLOBAL_UNIT_ASSIGNED_CONTEXT ( ( #160, #212, #158 ) ) REPRESENTATION_CONTEXT ( 'NONE', 'WORKASPACE' ) );
#243 = DIRECTION ( 'NONE',  ( -0.000000000000000000, -1.000000000000000000, -0.000000000000000000 ) ) ;
#244 = PRODUCT_DEFINITION ( 'UNKNOWN', '', #59, #189 ) ;
#245 = CARTESIAN_POINT ( 'NONE',  ( 0.000000000000000000, 0.000000000000000000, 0.000000000000000000 ) ) ;
#246 = FACE_OUTER_BOUND ( 'NONE', #263, .T. ) ;
#247 = CARTESIAN_POINT ( 'NONE',  ( 0.000000000000000000, 0.08000000000000002942, 0.000000000000000000 ) ) ;
#248 = CARTESIAN_POINT ( 'NONE',  ( 0.000000000000000000, 0.08000000000000002942, 0.5730000000000001759 ) ) ;
#249 = CARTESIAN_POINT ( 'NONE',  ( 7.654042494670957853E-17, 0.009999999999999349687, 0.6250000000000000000 ) ) ;
#250 = CYLINDRICAL_SURFACE ( 'NONE', #58, 0.6250000000000000000 ) ;
#251 = DIRECTION ( 'NONE',  ( 0.000000000000000000, -0.7071067811865474617, -0.7071067811865474617 ) ) ;
#252 = FACE_BOUND ( 'NONE', #230, .T. ) ;
#253 = ADVANCED_FACE ( 'NONE', ( #307 ), #250, .T. ) ;
#254 = FACE_OUTER_BOUND ( 'NONE', #132, .T. ) ;
#255 = DIRECTION ( 'NONE',  ( 0.000000000000000000, 1.000000000000000000, 0.000000000000000000 ) ) ;
#256 = FACE_OUTER_BOUND ( 'NONE', #86, .T. ) ;
#257 = CIRCLE ( 'NONE', #203, 0.6250000000000000000 ) ;
#258 = AXIS2_PLACEMENT_3D ( 'NONE', #366, #236, #82 ) ;
#259 = ORIENTED_EDGE ( 'NONE', *, *, #305, .F. ) ;
#260 = ORIENTED_EDGE ( 'NONE', *, *, #332, .F. ) ;
#261 = AXIS2_PLACEMENT_3D ( 'NONE', #226, #92, #125 ) ;
#262 = ORIENTED_EDGE ( 'NONE', *, *, #354, .T. ) ;
#263 = EDGE_LOOP ( 'NONE', ( #72, #138, #45, #40 ) ) ;
#264 = ORIENTED_EDGE ( 'NONE', *, *, #176, .T. ) ;
#265 = AXIS2_PLACEMENT_3D ( 'NONE', #361, #114, #81 ) ;
#266 = DIRECTION ( 'NONE',  ( -0.000000000000000000, -1.000000000000000000, -0.000000000000000000 ) ) ;
#267 =( NAMED_UNIT ( * ) SI_UNIT ( $, .STERADIAN. ) SOLID_ANGLE_UNIT ( ) );
#268 = ADVANCED_FACE ( 'NONE', ( #254 ), #349, .F. ) ;
#269 = ORIENTED_EDGE ( 'NONE', *, *, #166, .T. ) ;
#270 = CARTESIAN_POINT ( 'NONE',  ( 9.717505120676822460E-35, 1.111509027537581570E-18, 0.000000000000000000 ) ) ;
#271 = CARTESIAN_POINT ( 'NONE',  ( 0.000000000000000000, 0.06999999999999972911, 0.000000000000000000 ) ) ;
#272 = AXIS2_PLACEMENT_3D ( 'NONE', #14, #395, #209 ) ;
#273 = ORIENTED_EDGE ( 'NONE', *, *, #166, .F. ) ;
#274 = EDGE_CURVE ( 'NONE', #355, #295, #257, .T. ) ;
#275 = CIRCLE ( 'NONE', #79, 0.5629999999999999449 ) ;
#276 = FACE_OUTER_BOUND ( 'NONE', #76, .T. ) ;
#277 = EDGE_LOOP ( 'NONE', ( #233, #105, #46, #377 ) ) ;
#278 = CIRCLE ( 'NONE', #16, 0.5629999999999999449 ) ;
#279 = DIRECTION ( 'NONE',  ( -0.000000000000000000, -1.000000000000000000, -0.000000000000000000 ) ) ;
#280 = LINE ( 'NONE', #399, #380 ) ;
#281 = DIRECTION ( 'NONE',  ( 0.000000000000000000, -1.000000000000000000, 0.000000000000000000 ) ) ;
#282 = DIRECTION ( 'NONE',  ( 0.000000000000000000, 1.000000000000000000, 0.000000000000000000 ) ) ;
#283 = LINE ( 'NONE', #57, #240 ) ;
#284 = VECTOR ( 'NONE', #398, 39.37007874015748854 ) ;
#285 = DIRECTION ( 'NONE',  ( 0.000000000000000000, 1.000000000000000000, 0.000000000000000000 ) ) ;
#286 = DIRECTION ( 'NONE',  ( 0.000000000000000000, 0.000000000000000000, -1.000000000000000000 ) ) ;
#287 = DIRECTION ( 'NONE',  ( 0.000000000000000000, 0.000000000000000000, 1.000000000000000000 ) ) ;
#288 = CARTESIAN_POINT ( 'NONE',  ( 7.592810154713587863E-17, 0.08000000000000002942, 0.6149999999999997691 ) ) ;
#289 = EDGE_CURVE ( 'NONE', #102, #295, #402, .T. ) ;
#290 = VERTEX_POINT ( 'NONE', #249 ) ;
#291 = ORIENTED_EDGE ( 'NONE', *, *, #327, .T. ) ;
#292 = VERTEX_POINT ( 'NONE', #155 ) ;
#293 = CIRCLE ( 'NONE', #265, 0.6250000000000000000 ) ;
#294 = EDGE_CURVE ( 'NONE', #295, #339, #375, .T. ) ;
#295 = VERTEX_POINT ( 'NONE', #31 ) ;
#296 = VECTOR ( 'NONE', #251, 39.37007874015748854 ) ;
#297 = VERTEX_POINT ( 'NONE', #303 ) ;
#298 = VERTEX_POINT ( 'NONE', #373 ) ;
#299 = FACE_OUTER_BOUND ( 'NONE', #388, .T. ) ;
#300 = EDGE_LOOP ( 'NONE', ( #341, #269 ) ) ;
#301 = CARTESIAN_POINT ( 'NONE',  ( 7.017226159114331898E-17, 1.111509027537581570E-18, 0.5729999999999998428 ) ) ;
#302 = LINE ( 'NONE', #174, #141 ) ;
#303 = CARTESIAN_POINT ( 'NONE',  ( 0.000000000000000000, 0.08000000000000002942, 0.5730000000000001759 ) ) ;
#304 = DIRECTION ( 'NONE',  ( 0.000000000000000000, 0.000000000000000000, -1.000000000000000000 ) ) ;
#305 = EDGE_CURVE ( 'NONE', #356, #292, #275, .T. ) ;
#306 = CIRCLE ( 'NONE', #316, 0.6149999999999997691 ) ;
#307 = FACE_OUTER_BOUND ( 'NONE', #277, .T. ) ;
#308 = CARTESIAN_POINT ( 'NONE',  ( 0.000000000000000000, 1.111509027537581570E-18, 0.000000000000000000 ) ) ;
#309 = APPLICATION_CONTEXT ( 'automotive_design' ) ;
#310 = DIRECTION ( 'NONE',  ( 0.000000000000000000, 0.000000000000000000, -1.000000000000000000 ) ) ;
#311 = CARTESIAN_POINT ( 'NONE',  ( 0.000000000000000000, 0.08000000000000002942, 0.000000000000000000 ) ) ;
#312 = EDGE_CURVE ( 'NONE', #169, #298, #342, .T. ) ;
#313 = DIRECTION ( 'NONE',  ( 0.000000000000000000, 1.000000000000000000, 0.000000000000000000 ) ) ;
#314 = DIRECTION ( 'NONE',  ( 8.659560562354932858E-17, -0.7071067811865474617, 0.7071067811865474617 ) ) ;
#315 = ORIENTED_EDGE ( 'NONE', *, *, #305, .T. ) ;
#316 = AXIS2_PLACEMENT_3D ( 'NONE', #127, #282, #286 ) ;
#317 = CARTESIAN_POINT ( 'NONE',  ( 0.000000000000000000, 0.06999999999999986788, 0.000000000000000000 ) ) ;
#318 = DIRECTION ( 'NONE',  ( 0.000000000000000000, 1.000000000000000000, 0.000000000000000000 ) ) ;
#319 = DIRECTION ( 'NONE',  ( 0.000000000000000000, 0.000000000000000000, -1.000000000000000000 ) ) ;
#320 = EDGE_CURVE ( 'NONE', #290, #339, #164, .T. ) ;
#321 = LENGTH_MEASURE_WITH_UNIT ( LENGTH_MEASURE( 0.02539999999999999897 ), #163 );
#322 = AXIS2_PLACEMENT_3D ( 'NONE', #177, #205, #146 ) ;
#323 = VECTOR ( 'NONE', #372, 39.37007874015748854 ) ;
#324 = ORIENTED_EDGE ( 'NONE', *, *, #70, .T. ) ;
#325 = AXIS2_PLACEMENT_3D ( 'NONE', #247, #313, #310 ) ;
#326 = EDGE_LOOP ( 'NONE', ( #80, #262 ) ) ;
#327 = EDGE_CURVE ( 'NONE', #207, #339, #126, .T. ) ;
#328 = VERTEX_POINT ( 'NONE', #99 ) ;
#329 = EDGE_LOOP ( 'NONE', ( #352, #54, #179, #199 ) ) ;
#330 = ORIENTED_EDGE ( 'NONE', *, *, #6, .F. ) ;
#331 = DIMENSIONAL_EXPONENTS ( 1.000000000000000000, 0.000000000000000000, 0.000000000000000000, 0.000000000000000000, 0.000000000000000000, 0.000000000000000000, 0.000000000000000000 ) ;
#332 = EDGE_CURVE ( 'NONE', #292, #356, #278, .T. ) ;
#333 =( NAMED_UNIT ( * ) PLANE_ANGLE_UNIT ( ) SI_UNIT ( $, .RADIAN. ) );
#334 = APPLICATION_CONTEXT ( 'automotive_design' ) ;
#335 = CYLINDRICAL_SURFACE ( 'NONE', #340, 0.5629999999999999449 ) ;
#336 = DIRECTION ( 'NONE',  ( 0.000000000000000000, 0.000000000000000000, 1.000000000000000000 ) ) ;
#337 = DIRECTION ( 'NONE',  ( -0.000000000000000000, -1.000000000000000000, -0.000000000000000000 ) ) ;
#338 = DIRECTION ( 'NONE',  ( -0.000000000000000000, 1.000000000000000000, -0.000000000000000000 ) ) ;
#339 = VERTEX_POINT ( 'NONE', #149 ) ;
#340 = AXIS2_PLACEMENT_3D ( 'NONE', #391, #147, #111 ) ;
#341 = ORIENTED_EDGE ( 'NONE', *, *, #33, .T. ) ;
#342 = CIRCLE ( 'NONE', #181, 0.5629999999999999449 ) ;
#343 = DIRECTION ( 'NONE',  ( 0.000000000000000000, 0.000000000000000000, 1.000000000000000000 ) ) ;
#344 = ADVANCED_FACE ( 'NONE', ( #276 ), #116, .T. ) ;
#345 = FACE_OUTER_BOUND ( 'NONE', #107, .T. ) ;
#346 = DIRECTION ( 'NONE',  ( 0.000000000000000000, 0.000000000000000000, -1.000000000000000000 ) ) ;
#347 = DIRECTION ( 'NONE',  ( 0.000000000000000000, 0.7071067811865378028, 0.7071067811865571207 ) ) ;
#348 = AXIS2_PLACEMENT_3D ( 'NONE', #393, #362, #336 ) ;
#349 = CONICAL_SURFACE ( 'NONE', #170, 0.5629999999999999449, 0.7853981633974449483 ) ;
#350 = EDGE_CURVE ( 'NONE', #356, #328, #94, .T. ) ;
#351 = CARTESIAN_POINT ( 'NONE',  ( 7.654042494670957853E-17, 0.06999999999999972911, 0.6250000000000000000 ) ) ;
#352 = ORIENTED_EDGE ( 'NONE', *, *, #70, .F. ) ;
#353 = ORIENTED_EDGE ( 'NONE', *, *, #208, .F. ) ;
#354 = EDGE_CURVE ( 'NONE', #231, #102, #229, .T. ) ;
#355 = VERTEX_POINT ( 'NONE', #62 ) ;
#356 = VERTEX_POINT ( 'NONE', #219 ) ;
#357 = AXIS2_PLACEMENT_3D ( 'NONE', #389, #390, #109 ) ;
#358 = ADVANCED_FACE ( 'NONE', ( #370 ), #50, .T. ) ;
#359 = ORIENTED_EDGE ( 'NONE', *, *, #354, .F. ) ;
#360 = AXIS2_PLACEMENT_3D ( 'NONE', #145, #143, #85 ) ;
#361 = CARTESIAN_POINT ( 'NONE',  ( 0.000000000000000000, 0.009999999999999349687, 0.000000000000000000 ) ) ;
#362 = DIRECTION ( 'NONE',  ( -0.000000000000000000, 1.000000000000000000, -0.000000000000000000 ) ) ;
#363 = VECTOR ( 'NONE', #314, 39.37007874015748854 ) ;
#364 = DIRECTION ( 'NONE',  ( 0.000000000000000000, 0.000000000000000000, -1.000000000000000000 ) ) ;
#365 = CIRCLE ( 'NONE', #108, 0.5730000000000001759 ) ;
#366 = CARTESIAN_POINT ( 'NONE',  ( 0.000000000000000000, 0.000000000000000000, 0.000000000000000000 ) ) ;
#367 = FACE_BOUND ( 'NONE', #300, .T. ) ;
#368 = FACE_OUTER_BOUND ( 'NONE', #103, .T. ) ;
#369 = DIRECTION ( 'NONE',  ( 0.000000000000000000, 0.000000000000000000, -1.000000000000000000 ) ) ;
#370 = FACE_OUTER_BOUND ( 'NONE', #385, .T. ) ;
#371 = CONICAL_SURFACE ( 'NONE', #348, 0.5730000000000001759, 0.7853981633974482790 ) ;
#372 = DIRECTION ( 'NONE',  ( 0.000000000000000000, 0.7071067811865474617, 0.7071067811865474617 ) ) ;
#373 = CARTESIAN_POINT ( 'NONE',  ( 6.894761479199598081E-17, 0.009999999999999896125, 0.5629999999999999449 ) ) ;
#374 = SURFACE_STYLE_FILL_AREA ( #95 ) ;
#375 = LINE ( 'NONE', #190, #43 ) ;
#376 = CARTESIAN_POINT ( 'NONE',  ( 0.000000000000000000, 1.111509027537581570E-18, 0.6150000000000004352 ) ) ;
#377 = ORIENTED_EDGE ( 'NONE', *, *, #36, .T. ) ;
#378 = DIRECTION ( 'NONE',  ( 8.659560562355051187E-17, 0.7071067811865378028, -0.7071067811865571207 ) ) ;
#379 = DIRECTION ( 'NONE',  ( 8.659560562354903276E-17, -0.7071067811865499042, 0.7071067811865451302 ) ) ;
#380 = VECTOR ( 'NONE', #156, 39.37007874015748143 ) ;
#381 = DIRECTION ( 'NONE',  ( -0.000000000000000000, 1.000000000000000000, -0.000000000000000000 ) ) ;
#382 = ORIENTED_EDGE ( 'NONE', *, *, #294, .F. ) ;
#383 = EDGE_CURVE ( 'NONE', #295, #355, #73, .T. ) ;
#384 = ORIENTED_EDGE ( 'NONE', *, *, #154, .T. ) ;
#385 = EDGE_LOOP ( 'NONE', ( #330, #291, #110, #7 ) ) ;
#386 = DIRECTION ( 'NONE',  ( 0.000000000000000000, 1.000000000000000000, 0.000000000000000000 ) ) ;
#387 = VERTEX_POINT ( 'NONE', #301 ) ;
#388 = EDGE_LOOP ( 'NONE', ( #9, #260, #22, #11 ) ) ;
#389 = CARTESIAN_POINT ( 'NONE',  ( 0.000000000000000000, 1.111509027537581570E-18, 0.000000000000000000 ) ) ;
#390 = DIRECTION ( 'NONE',  ( 0.000000000000000000, 1.000000000000000000, 0.000000000000000000 ) ) ;
#391 = CARTESIAN_POINT ( 'NONE',  ( 0.000000000000000000, 0.000000000000000000, 0.000000000000000000 ) ) ;
#392 = AXIS2_PLACEMENT_3D ( 'NONE', #27, #159, #101 ) ;
#393 = CARTESIAN_POINT ( 'NONE',  ( 0.000000000000000000, 0.08000000000000002942, 0.000000000000000000 ) ) ;
#394 = CARTESIAN_POINT ( 'NONE',  ( 0.000000000000000000, 0.06999999999999972911, -0.6250000000000000000 ) ) ;
#395 = DIRECTION ( 'NONE',  ( -0.000000000000000000, -1.000000000000000000, -0.000000000000000000 ) ) ;
#396 = ADVANCED_FACE ( 'NONE', ( #368 ), #131, .T. ) ;
#397 = APPLICATION_PROTOCOL_DEFINITION ( 'draft international standard', 'automotive_design', 1998, #334 ) ;
#398 = DIRECTION ( 'NONE',  ( 8.659560562354932858E-17, 0.7071067811865474617, -0.7071067811865474617 ) ) ;
#399 = CARTESIAN_POINT ( 'NONE',  ( 0.000000000000000000, 0.000000000000000000, -0.5629999999999999449 ) ) ;
#400 = CARTESIAN_POINT ( 'NONE',  ( 7.017226159114335595E-17, 0.08000000000000002942, -0.5730000000000001759 ) ) ;
#401 = FACE_OUTER_BOUND ( 'NONE', #90, .T. ) ;
#402 = LINE ( 'NONE', #394, #296 ) ;
#403 = DIRECTION ( 'NONE',  ( 0.000000000000000000, 0.000000000000000000, -1.000000000000000000 ) ) ;
#404 = VECTOR ( 'NONE', #378, 39.37007874015748854 ) ;
#405 = DIRECTION ( 'NONE',  ( 0.000000000000000000, 0.000000000000000000, -1.000000000000000000 ) ) ;
ENDSEC;
END-ISO-10303-21;
