ISO-10303-21;
HEADER;
FILE_DESCRIPTION (( 'STEP AP203' ),
    '1' );
FILE_NAME ('MS2067.STEP',
    '2025-05-08T17:04:28',
    ( '' ),
    ( '' ),
    'SwSTEP 2.0',
    'SolidWorks 2023',
    '' );
FILE_SCHEMA (( 'CONFIG_CONTROL_DESIGN' ));
ENDSEC;

DATA;
#1 = VECTOR ( 'NONE', #58, 39.37007874015748143 ) ;
#2 = CYLINDRICAL_SURFACE ( 'NONE', #221, 0.6220472440944883052 ) ;
#3 = PERSON ( 'UNSPECIFIED', 'UNSPECIFIED', 'UNSPECIFIED', ('UNSPECIFIED'), ('UNSPECIFIED'), ('UNSPECIFIED') ) ;
#4 = DIRECTION ( 'NONE',  ( -0.000000000000000000, 0.000000000000000000, 1.000000000000000000 ) ) ;
#5 = CC_DESIGN_DATE_AND_TIME_ASSIGNMENT ( #245, #11, ( #90 ) ) ;
#6 = EDGE_CURVE ( 'NONE', #130, #34, #244, .T. ) ;
#7 =( LENGTH_UNIT ( ) NAMED_UNIT ( * ) SI_UNIT ( $, .METRE. ) );
#8 = DIRECTION ( 'NONE',  ( -0.000000000000000000, -0.000000000000000000, -1.000000000000000000 ) ) ;
#9 = MECHANICAL_CONTEXT ( 'NONE', #158, 'mechanical' ) ;
#10 = PRODUCT_DEFINITION_SHAPE ( 'NONE', 'NONE',  #15 ) ;
#11 = DATE_TIME_ROLE ( 'classification_date' ) ;
#12 = EDGE_LOOP ( 'NONE', ( #209, #17 ) ) ;
#13 = APPROVAL_ROLE ( '' ) ;
#14 = ORIENTED_EDGE ( 'NONE', *, *, #223, .T. ) ;
#15 = PRODUCT_DEFINITION ( 'UNKNOWN', '', #144, #136 ) ;
#16 = CC_DESIGN_APPROVAL ( #210, ( #90 ) ) ;
#17 = ORIENTED_EDGE ( 'NONE', *, *, #6, .F. ) ;
#18 = DIRECTION ( 'NONE',  ( -0.000000000000000000, 0.000000000000000000, 1.000000000000000000 ) ) ;
#19 = APPROVAL_PERSON_ORGANIZATION ( #166, #66, #164 ) ;
#20 = DIRECTION ( 'NONE',  ( -0.000000000000000000, -0.000000000000000000, -1.000000000000000000 ) ) ;
#21 = ORIENTED_EDGE ( 'NONE', *, *, #127, .T. ) ;
#22 = ORIENTED_EDGE ( 'NONE', *, *, #146, .F. ) ;
#23 = VECTOR ( 'NONE', #20, 39.37007874015748143 ) ;
#24 = DIRECTION ( 'NONE',  ( 1.000000000000000000, 0.000000000000000000, 0.000000000000000000 ) ) ;
#25 = DIRECTION ( 'NONE',  ( -1.000000000000000000, 0.000000000000000000, 0.000000000000000000 ) ) ;
#26 = ADVANCED_FACE ( 'NONE', ( #135 ), #197, .T. ) ;
#27 = CARTESIAN_POINT ( 'NONE',  ( 0.000000000000000000, 0.000000000000000000, 3.500000000000000000 ) ) ;
#28 = LOCAL_TIME ( 10, 4, 28.00000000000000000, #224 ) ;
#29 = FACE_BOUND ( 'NONE', #205, .T. ) ;
#30 = AXIS2_PLACEMENT_3D ( 'NONE', #239, #4, #138 ) ;
#31 = CALENDAR_DATE ( 2025, 8, 5 ) ;
#32 = ORIENTED_EDGE ( 'NONE', *, *, #95, .F. ) ;
#33 = APPROVAL_STATUS ( 'not_yet_approved' ) ;
#34 = VERTEX_POINT ( 'NONE', #179 ) ;
#35 = ADVANCED_FACE ( 'NONE', ( #39 ), #2, .F. ) ;
#36 = APPROVAL_STATUS ( 'not_yet_approved' ) ;
#37 = CIRCLE ( 'NONE', #249, 0.6220472440944883052 ) ;
#38 = VERTEX_POINT ( 'NONE', #152 ) ;
#39 = FACE_OUTER_BOUND ( 'NONE', #211, .T. ) ;
#40 = ORIENTED_EDGE ( 'NONE', *, *, #155, .T. ) ;
#41 = DIRECTION ( 'NONE',  ( -0.000000000000000000, -0.000000000000000000, -1.000000000000000000 ) ) ;
#42 = LINE ( 'NONE', #252, #216 ) ;
#43 = DIRECTION ( 'NONE',  ( -1.000000000000000000, 0.000000000000000000, 0.000000000000000000 ) ) ;
#44 = DIRECTION ( 'NONE',  ( 1.000000000000000000, 0.000000000000000000, 0.000000000000000000 ) ) ;
#45 =( CONVERSION_BASED_UNIT ( 'INCH', #61 ) LENGTH_UNIT ( ) NAMED_UNIT ( #248 ) );
#46 = FACE_OUTER_BOUND ( 'NONE', #147, .T. ) ;
#47 = AXIS2_PLACEMENT_3D ( 'NONE', #98, #181, #214 ) ;
#48 = APPROVAL_PERSON_ORGANIZATION ( #103, #210, #111 ) ;
#49 = CARTESIAN_POINT ( 'NONE',  ( 0.000000000000000000, 0.000000000000000000, 3.500000000000000000 ) ) ;
#50 = EDGE_CURVE ( 'NONE', #87, #115, #112, .T. ) ;
#51 = EDGE_LOOP ( 'NONE', ( #176, #191, #107, #236 ) ) ;
#52 = CC_DESIGN_PERSON_AND_ORGANIZATION_ASSIGNMENT ( #169, #188, ( #144 ) ) ;
#53 = PERSON_AND_ORGANIZATION_ROLE ( 'creator' ) ;
#54 = PERSON_AND_ORGANIZATION ( #3, #123 ) ;
#55 = AXIS2_PLACEMENT_3D ( 'NONE', #139, #182, #63 ) ;
#56 = EDGE_LOOP ( 'NONE', ( #133, #122, #195, #233 ) ) ;
#57 = DIRECTION ( 'NONE',  ( -0.000000000000000000, 0.000000000000000000, 1.000000000000000000 ) ) ;
#58 = DIRECTION ( 'NONE',  ( -0.000000000000000000, -0.000000000000000000, -1.000000000000000000 ) ) ;
#59 = EDGE_CURVE ( 'NONE', #130, #227, #175, .T. ) ;
#60 = APPROVAL_PERSON_ORGANIZATION ( #121, #159, #13 ) ;
#61 = LENGTH_MEASURE_WITH_UNIT ( LENGTH_MEASURE( 0.02539999999999999897 ), #7 );
#62 = CIRCLE ( 'NONE', #85, 0.6220472440944883052 ) ;
#63 = DIRECTION ( 'NONE',  ( -1.000000000000000000, 0.000000000000000000, 0.000000000000000000 ) ) ;
#64 = CARTESIAN_POINT ( 'NONE',  ( 0.000000000000000000, 0.000000000000000000, 0.000000000000000000 ) ) ;
#65 = PERSON_AND_ORGANIZATION ( #3, #123 ) ;
#66 = APPROVAL ( #33, 'UNSPECIFIED' ) ;
#67 = FACE_OUTER_BOUND ( 'NONE', #170, .T. ) ;
#68 = CC_DESIGN_PERSON_AND_ORGANIZATION_ASSIGNMENT ( #226, #88, ( #90 ) ) ;
#69 = EDGE_CURVE ( 'NONE', #172, #132, #193, .T. ) ;
#70 = PERSON_AND_ORGANIZATION_ROLE ( 'creator' ) ;
#71 = LOCAL_TIME ( 10, 4, 28.00000000000000000, #228 ) ;
#72 = APPLICATION_PROTOCOL_DEFINITION ( 'international standard', 'config_control_design', 1994, #241 ) ;
#73 = AXIS2_PLACEMENT_3D ( 'NONE', #97, #18, #250 ) ;
#74 = DIRECTION ( 'NONE',  ( -0.000000000000000000, 0.000000000000000000, 1.000000000000000000 ) ) ;
#75 = CARTESIAN_POINT ( 'NONE',  ( 0.000000000000000000, 0.000000000000000000, 0.000000000000000000 ) ) ;
#76 = ORIENTED_EDGE ( 'NONE', *, *, #134, .F. ) ;
#77 = CARTESIAN_POINT ( 'NONE',  ( 0.6875000000000000000, 8.419446744138052529E-17, 0.000000000000000000 ) ) ;
#78 = CARTESIAN_POINT ( 'NONE',  ( 0.000000000000000000, 0.000000000000000000, 3.500000000000000000 ) ) ;
#79 = DIRECTION ( 'NONE',  ( -0.000000000000000000, 0.000000000000000000, 1.000000000000000000 ) ) ;
#80 = CARTESIAN_POINT ( 'NONE',  ( 0.000000000000000000, 0.000000000000000000, 3.500000000000000000 ) ) ;
#81 =( NAMED_UNIT ( * ) PLANE_ANGLE_UNIT ( ) SI_UNIT ( $, .RADIAN. ) );
#82 = EDGE_CURVE ( 'NONE', #115, #132, #141, .T. ) ;
#83 = DIRECTION ( 'NONE',  ( 0.000000000000000000, 0.000000000000000000, 1.000000000000000000 ) ) ;
#84 = DIRECTION ( 'NONE',  ( -0.000000000000000000, 0.000000000000000000, 1.000000000000000000 ) ) ;
#85 = AXIS2_PLACEMENT_3D ( 'NONE', #118, #79, #198 ) ;
#86 = DATE_AND_TIME ( #91, #71 ) ;
#87 = VERTEX_POINT ( 'NONE', #213 ) ;
#88 = PERSON_AND_ORGANIZATION_ROLE ( 'classification_officer' ) ;
#89 = ORIENTED_EDGE ( 'NONE', *, *, #127, .F. ) ;
#90 = SECURITY_CLASSIFICATION ( '', '', #108 ) ;
#91 = CALENDAR_DATE ( 2025, 8, 5 ) ;
#92 = MANIFOLD_SOLID_BREP ( 'Boss-Extrude1', #153 ) ;
#93 = CARTESIAN_POINT ( 'NONE',  ( 0.000000000000000000, 0.000000000000000000, 3.500000000000000000 ) ) ;
#94 = CARTESIAN_POINT ( 'NONE',  ( -0.6875000000000000000, 0.000000000000000000, 0.000000000000000000 ) ) ;
#95 = EDGE_CURVE ( 'NONE', #34, #38, #42, .T. ) ;
#96 = DIRECTION ( 'NONE',  ( 1.000000000000000000, 0.000000000000000000, 0.000000000000000000 ) ) ;
#97 = CARTESIAN_POINT ( 'NONE',  ( 0.000000000000000000, 0.000000000000000000, 3.500000000000000000 ) ) ;
#98 = CARTESIAN_POINT ( 'NONE',  ( 0.000000000000000000, 0.000000000000000000, 3.500000000000000000 ) ) ;
#99 = CARTESIAN_POINT ( 'NONE',  ( 0.6220472440944883052, 7.617881663987473502E-17, 0.000000000000000000 ) ) ;
#100 = APPLICATION_PROTOCOL_DEFINITION ( 'international standard', 'config_control_design', 1994, #158 ) ;
#101 = FACE_BOUND ( 'NONE', #12, .T. ) ;
#102 = DIRECTION ( 'NONE',  ( -0.000000000000000000, 0.000000000000000000, 1.000000000000000000 ) ) ;
#103 = PERSON_AND_ORGANIZATION ( #3, #123 ) ;
#104 = AXIS2_PLACEMENT_3D ( 'NONE', #93, #235, #231 ) ;
#105 = APPROVAL_DATE_TIME ( #86, #66 ) ;
#106 = CALENDAR_DATE ( 2025, 8, 5 ) ;
#107 = ORIENTED_EDGE ( 'NONE', *, *, #82, .T. ) ;
#108 = SECURITY_CLASSIFICATION_LEVEL ( 'unclassified' ) ;
#109 = VECTOR ( 'NONE', #41, 39.37007874015748143 ) ;
#110 = CC_DESIGN_APPROVAL ( #66, ( #15 ) ) ;
#111 = APPROVAL_ROLE ( '' ) ;
#112 = LINE ( 'NONE', #196, #109 ) ;
#113 = DIRECTION ( 'NONE',  ( -0.000000000000000000, -0.000000000000000000, -1.000000000000000000 ) ) ;
#114 = AXIS2_PLACEMENT_3D ( 'NONE', #64, #184, #44 ) ;
#115 = VERTEX_POINT ( 'NONE', #77 ) ;
#116 = ORIENTED_EDGE ( 'NONE', *, *, #59, .F. ) ;
#117 = ORIENTED_EDGE ( 'NONE', *, *, #59, .T. ) ;
#118 = CARTESIAN_POINT ( 'NONE',  ( 0.000000000000000000, 0.000000000000000000, 3.500000000000000000 ) ) ;
#119 = EDGE_CURVE ( 'NONE', #172, #87, #128, .T. ) ;
#120 = LOCAL_TIME ( 10, 4, 28.00000000000000000, #148 ) ;
#121 = PERSON_AND_ORGANIZATION ( #3, #123 ) ;
#122 = ORIENTED_EDGE ( 'NONE', *, *, #119, .F. ) ;
#123 = ORGANIZATION ( 'UNSPECIFIED', 'UNSPECIFIED', '' ) ;
#124 = COORDINATED_UNIVERSAL_TIME_OFFSET ( 8, 0, .BEHIND. ) ;
#125 = ORIENTED_EDGE ( 'NONE', *, *, #119, .T. ) ;
#126 = PERSON_AND_ORGANIZATION ( #3, #123 ) ;
#127 = EDGE_CURVE ( 'NONE', #38, #227, #37, .T. ) ;
#128 = CIRCLE ( 'NONE', #104, 0.6875000000000000000 ) ;
#129 = DIRECTION ( 'NONE',  ( 1.000000000000000000, 0.000000000000000000, 0.000000000000000000 ) ) ;
#130 = VERTEX_POINT ( 'NONE', #194 ) ;
#131 = AXIS2_PLACEMENT_3D ( 'NONE', #185, #83, #140 ) ;
#132 = VERTEX_POINT ( 'NONE', #94 ) ;
#133 = ORIENTED_EDGE ( 'NONE', *, *, #50, .F. ) ;
#134 = EDGE_CURVE ( 'NONE', #227, #38, #225, .T. ) ;
#135 = FACE_OUTER_BOUND ( 'NONE', #56, .T. ) ;
#136 = DESIGN_CONTEXT ( 'detailed design', #241, 'design' ) ;
#137 = CIRCLE ( 'NONE', #30, 0.6875000000000000000 ) ;
#138 = DIRECTION ( 'NONE',  ( 1.000000000000000000, 0.000000000000000000, 0.000000000000000000 ) ) ;
#139 = CARTESIAN_POINT ( 'NONE',  ( 0.000000000000000000, 0.000000000000000000, 3.500000000000000000 ) ) ;
#140 = DIRECTION ( 'NONE',  ( 1.000000000000000000, 0.000000000000000000, 0.000000000000000000 ) ) ;
#141 = CIRCLE ( 'NONE', #201, 0.6875000000000000000 ) ;
#142 = CALENDAR_DATE ( 2025, 8, 5 ) ;
#143 = SHAPE_DEFINITION_REPRESENTATION ( #10, #208 ) ;
#144 = PRODUCT_DEFINITION_FORMATION_WITH_SPECIFIED_SOURCE ( 'ANY', '', #187, .NOT_KNOWN. ) ;
#145 = APPROVAL_DATE_TIME ( #242, #159 ) ;
#146 = EDGE_CURVE ( 'NONE', #132, #115, #137, .T. ) ;
#147 = EDGE_LOOP ( 'NONE', ( #125, #40 ) ) ;
#148 = COORDINATED_UNIVERSAL_TIME_OFFSET ( 8, 0, .BEHIND. ) ;
#149 = AXIS2_PLACEMENT_3D ( 'NONE', #49, #240, #183 ) ;
#150 = ORIENTED_EDGE ( 'NONE', *, *, #6, .T. ) ;
#151 = CARTESIAN_POINT ( 'NONE',  ( 0.000000000000000000, 0.000000000000000000, 0.000000000000000000 ) ) ;
#152 = CARTESIAN_POINT ( 'NONE',  ( -0.6220472440944883052, 0.000000000000000000, 0.000000000000000000 ) ) ;
#153 = CLOSED_SHELL ( 'NONE', ( #202, #212, #35, #26, #186, #190 ) ) ;
#154 = ORIENTED_EDGE ( 'NONE', *, *, #134, .T. ) ;
#155 = EDGE_CURVE ( 'NONE', #87, #172, #174, .T. ) ;
#156 = UNCERTAINTY_MEASURE_WITH_UNIT (LENGTH_MEASURE( 1.000000000000000082E-05 ), #45, 'distance_accuracy_value', 'NONE');
#157 = DIRECTION ( 'NONE',  ( -0.000000000000000000, -0.000000000000000000, -1.000000000000000000 ) ) ;
#158 = APPLICATION_CONTEXT ( 'configuration controlled 3d designs of mechanical parts and assemblies' ) ;
#159 = APPROVAL ( #206, 'UNSPECIFIED' ) ;
#160 = PLANE ( 'NONE',  #114 ) ;
#161 = CYLINDRICAL_SURFACE ( 'NONE', #230, 0.6220472440944883052 ) ;
#162 = DIRECTION ( 'NONE',  ( 1.000000000000000000, 0.000000000000000000, 0.000000000000000000 ) ) ;
#163 = AXIS2_PLACEMENT_3D ( 'NONE', #80, #84, #24 ) ;
#164 = APPROVAL_ROLE ( '' ) ;
#165 = DATE_TIME_ROLE ( 'creation_date' ) ;
#166 = PERSON_AND_ORGANIZATION ( #3, #123 ) ;
#167 = ORIENTED_EDGE ( 'NONE', *, *, #95, .T. ) ;
#168 =( GEOMETRIC_REPRESENTATION_CONTEXT ( 3 ) GLOBAL_UNCERTAINTY_ASSIGNED_CONTEXT ( ( #156 ) ) GLOBAL_UNIT_ASSIGNED_CONTEXT ( ( #45, #81, #217 ) ) REPRESENTATION_CONTEXT ( 'NONE', 'WORKASPACE' ) );
#169 = PERSON_AND_ORGANIZATION ( #3, #123 ) ;
#170 = EDGE_LOOP ( 'NONE', ( #22, #203 ) ) ;
#171 = DATE_AND_TIME ( #31, #28 ) ;
#172 = VERTEX_POINT ( 'NONE', #215 ) ;
#173 = CARTESIAN_POINT ( 'NONE',  ( 0.000000000000000000, 0.000000000000000000, 0.000000000000000000 ) ) ;
#174 = CIRCLE ( 'NONE', #163, 0.6875000000000000000 ) ;
#175 = LINE ( 'NONE', #251, #23 ) ;
#176 = ORIENTED_EDGE ( 'NONE', *, *, #155, .F. ) ;
#177 = CC_DESIGN_SECURITY_CLASSIFICATION ( #90, ( #144 ) ) ;
#178 = CC_DESIGN_PERSON_AND_ORGANIZATION_ASSIGNMENT ( #126, #53, ( #15 ) ) ;
#179 = CARTESIAN_POINT ( 'NONE',  ( -0.6220472440944883052, 0.000000000000000000, 3.500000000000000000 ) ) ;
#180 = AXIS2_PLACEMENT_3D ( 'NONE', #151, #102, #162 ) ;
#181 = DIRECTION ( 'NONE',  ( -0.000000000000000000, -0.000000000000000000, -1.000000000000000000 ) ) ;
#182 = DIRECTION ( 'NONE',  ( -0.000000000000000000, -0.000000000000000000, -1.000000000000000000 ) ) ;
#183 = DIRECTION ( 'NONE',  ( 1.000000000000000000, 0.000000000000000000, 0.000000000000000000 ) ) ;
#184 = DIRECTION ( 'NONE',  ( -0.000000000000000000, 0.000000000000000000, 1.000000000000000000 ) ) ;
#185 = CARTESIAN_POINT ( 'NONE',  ( 0.000000000000000000, 0.000000000000000000, 0.000000000000000000 ) ) ;
#186 = ADVANCED_FACE ( 'NONE', ( #101, #46 ), #237, .T. ) ;
#187 = PRODUCT ( 'MS2067', 'MS2067', '', ( #9 ) ) ;
#188 = PERSON_AND_ORGANIZATION_ROLE ( 'design_supplier' ) ;
#189 = PRODUCT_RELATED_PRODUCT_CATEGORY ( 'detail', '', ( #187 ) ) ;
#190 = ADVANCED_FACE ( 'NONE', ( #29, #67 ), #160, .F. ) ;
#191 = ORIENTED_EDGE ( 'NONE', *, *, #50, .T. ) ;
#192 = LOCAL_TIME ( 10, 4, 28.00000000000000000, #124 ) ;
#193 = LINE ( 'NONE', #232, #1 ) ;
#194 = CARTESIAN_POINT ( 'NONE',  ( 0.6220472440944883052, 7.617881663987473502E-17, 3.500000000000000000 ) ) ;
#195 = ORIENTED_EDGE ( 'NONE', *, *, #69, .T. ) ;
#196 = CARTESIAN_POINT ( 'NONE',  ( 0.6875000000000000000, 8.419446744138052529E-17, 3.500000000000000000 ) ) ;
#197 = CYLINDRICAL_SURFACE ( 'NONE', #47, 0.6875000000000000000 ) ;
#198 = DIRECTION ( 'NONE',  ( 1.000000000000000000, 0.000000000000000000, 0.000000000000000000 ) ) ;
#199 = CYLINDRICAL_SURFACE ( 'NONE', #55, 0.6875000000000000000 ) ;
#200 = CC_DESIGN_APPROVAL ( #159, ( #144 ) ) ;
#201 = AXIS2_PLACEMENT_3D ( 'NONE', #75, #57, #96 ) ;
#202 = ADVANCED_FACE ( 'NONE', ( #222 ), #199, .T. ) ;
#203 = ORIENTED_EDGE ( 'NONE', *, *, #82, .F. ) ;
#204 = DATE_AND_TIME ( #106, #192 ) ;
#205 = EDGE_LOOP ( 'NONE', ( #21, #154 ) ) ;
#206 = APPROVAL_STATUS ( 'not_yet_approved' ) ;
#207 = COORDINATED_UNIVERSAL_TIME_OFFSET ( 8, 0, .BEHIND. ) ;
#208 = ADVANCED_BREP_SHAPE_REPRESENTATION ( 'MS2067', ( #92, #131 ), #168 ) ;
#209 = ORIENTED_EDGE ( 'NONE', *, *, #223, .F. ) ;
#210 = APPROVAL ( #36, 'UNSPECIFIED' ) ;
#211 = EDGE_LOOP ( 'NONE', ( #116, #150, #167, #76 ) ) ;
#212 = ADVANCED_FACE ( 'NONE', ( #220 ), #161, .F. ) ;
#213 = CARTESIAN_POINT ( 'NONE',  ( 0.6875000000000000000, 8.419446744138052529E-17, 3.500000000000000000 ) ) ;
#214 = DIRECTION ( 'NONE',  ( -1.000000000000000000, 0.000000000000000000, 0.000000000000000000 ) ) ;
#215 = CARTESIAN_POINT ( 'NONE',  ( -0.6875000000000000000, 0.000000000000000000, 3.500000000000000000 ) ) ;
#216 = VECTOR ( 'NONE', #113, 39.37007874015748143 ) ;
#217 =( NAMED_UNIT ( * ) SI_UNIT ( $, .STERADIAN. ) SOLID_ANGLE_UNIT ( ) );
#218 = PERSON_AND_ORGANIZATION_ROLE ( 'design_owner' ) ;
#219 = CC_DESIGN_PERSON_AND_ORGANIZATION_ASSIGNMENT ( #54, #70, ( #144 ) ) ;
#220 = FACE_OUTER_BOUND ( 'NONE', #247, .T. ) ;
#221 = AXIS2_PLACEMENT_3D ( 'NONE', #78, #157, #43 ) ;
#222 = FACE_OUTER_BOUND ( 'NONE', #51, .T. ) ;
#223 = EDGE_CURVE ( 'NONE', #34, #130, #62, .T. ) ;
#224 = COORDINATED_UNIVERSAL_TIME_OFFSET ( 8, 0, .BEHIND. ) ;
#225 = CIRCLE ( 'NONE', #180, 0.6220472440944883052 ) ;
#226 = PERSON_AND_ORGANIZATION ( #3, #123 ) ;
#227 = VERTEX_POINT ( 'NONE', #99 ) ;
#228 = COORDINATED_UNIVERSAL_TIME_OFFSET ( 8, 0, .BEHIND. ) ;
#229 = CC_DESIGN_DATE_AND_TIME_ASSIGNMENT ( #171, #165, ( #15 ) ) ;
#230 = AXIS2_PLACEMENT_3D ( 'NONE', #27, #8, #25 ) ;
#231 = DIRECTION ( 'NONE',  ( 1.000000000000000000, 0.000000000000000000, 0.000000000000000000 ) ) ;
#232 = CARTESIAN_POINT ( 'NONE',  ( -0.6875000000000000000, 0.000000000000000000, 3.500000000000000000 ) ) ;
#233 = ORIENTED_EDGE ( 'NONE', *, *, #146, .T. ) ;
#234 = LOCAL_TIME ( 10, 4, 28.00000000000000000, #207 ) ;
#235 = DIRECTION ( 'NONE',  ( -0.000000000000000000, 0.000000000000000000, 1.000000000000000000 ) ) ;
#236 = ORIENTED_EDGE ( 'NONE', *, *, #69, .F. ) ;
#237 = PLANE ( 'NONE',  #149 ) ;
#238 = CC_DESIGN_PERSON_AND_ORGANIZATION_ASSIGNMENT ( #65, #218, ( #187 ) ) ;
#239 = CARTESIAN_POINT ( 'NONE',  ( 0.000000000000000000, 0.000000000000000000, 0.000000000000000000 ) ) ;
#240 = DIRECTION ( 'NONE',  ( -0.000000000000000000, 0.000000000000000000, 1.000000000000000000 ) ) ;
#241 = APPLICATION_CONTEXT ( 'configuration controlled 3d designs of mechanical parts and assemblies' ) ;
#242 = DATE_AND_TIME ( #142, #120 ) ;
#243 = CALENDAR_DATE ( 2025, 8, 5 ) ;
#244 = CIRCLE ( 'NONE', #73, 0.6220472440944883052 ) ;
#245 = DATE_AND_TIME ( #243, #234 ) ;
#246 = APPROVAL_DATE_TIME ( #204, #210 ) ;
#247 = EDGE_LOOP ( 'NONE', ( #14, #117, #89, #32 ) ) ;
#248 = DIMENSIONAL_EXPONENTS ( 1.000000000000000000, 0.000000000000000000, 0.000000000000000000, 0.000000000000000000, 0.000000000000000000, 0.000000000000000000, 0.000000000000000000 ) ;
#249 = AXIS2_PLACEMENT_3D ( 'NONE', #173, #74, #129 ) ;
#250 = DIRECTION ( 'NONE',  ( 1.000000000000000000, 0.000000000000000000, 0.000000000000000000 ) ) ;
#251 = CARTESIAN_POINT ( 'NONE',  ( 0.6220472440944883052, 7.617881663987473502E-17, 3.500000000000000000 ) ) ;
#252 = CARTESIAN_POINT ( 'NONE',  ( -0.6220472440944883052, 0.000000000000000000, 3.500000000000000000 ) ) ;
ENDSEC;
END-ISO-10303-21;
