ISO-10303-21;
HEADER;
FILE_DESCRIPTION (( 'STEP AP214' ),
    '1' );
FILE_NAME ('MS2066.STEP',
    '2025-05-08T17:39:50',
    ( '' ),
    ( '' ),
    'SwSTEP 2.0',
    'SolidWorks 2023',
    '' );
FILE_SCHEMA (( 'AUTOMOTIVE_DESIGN' ));
ENDSEC;

DATA;
#1 = DIRECTION ( 'NONE',  ( -0.000000000000000000, -0.000000000000000000, -1.000000000000000000 ) ) ;
#2 = CARTESIAN_POINT ( 'NONE',  ( -0.6220472440944883052, 0.000000000000000000, 0.000000000000000000 ) ) ;
#3 = CONICAL_SURFACE ( 'NONE', #104, 0.6220472440944883052, 0.1243549945467593426 ) ;
#4 =( CONVERSION_BASED_UNIT ( 'INCH', #292 ) LENGTH_UNIT ( ) NAMED_UNIT ( #77 ) );
#5 = CARTESIAN_POINT ( 'NONE',  ( 0.000000000000000000, 0.000000000000000000, 3.000000000000000444 ) ) ;
#6 = CLOSED_SHELL ( 'NONE', ( #318, #121, #263, #196, #244, #89, #309, #10, #32, #212, #241 ) ) ;
#7 = AXIS2_PLACEMENT_3D ( 'NONE', #100, #126, #148 ) ;
#8 = CARTESIAN_POINT ( 'NONE',  ( 0.6520000000000000240, 7.984697130440742487E-17, 3.500000000000000000 ) ) ;
#9 = ORIENTED_EDGE ( 'NONE', *, *, #326, .T. ) ;
#10 = ADVANCED_FACE ( 'NONE', ( #46, #72 ), #19, .F. ) ;
#11 = CYLINDRICAL_SURFACE ( 'NONE', #271, 0.6875000000000000000 ) ;
#12 = ORIENTED_EDGE ( 'NONE', *, *, #97, .T. ) ;
#13 = FACE_OUTER_BOUND ( 'NONE', #41, .T. ) ;
#14 = ORIENTED_EDGE ( 'NONE', *, *, #51, .T. ) ;
#15 = EDGE_CURVE ( 'NONE', #155, #27, #201, .T. ) ;
#16 = CARTESIAN_POINT ( 'NONE',  ( 0.6875000000000000000, 8.419446744138051296E-17, 0.000000000000000000 ) ) ;
#17 = EDGE_LOOP ( 'NONE', ( #93, #12 ) ) ;
#18 = VERTEX_POINT ( 'NONE', #76 ) ;
#19 = PLANE ( 'NONE',  #7 ) ;
#20 = AXIS2_PLACEMENT_3D ( 'NONE', #75, #203, #206 ) ;
#21 = PRODUCT_CONTEXT ( 'NONE', #243, 'mechanical' ) ;
#22 = COLOUR_RGB ( '',0.7921568627450980005, 0.8196078431372548767, 0.9333333333333333481 ) ;
#23 = ORIENTED_EDGE ( 'NONE', *, *, #57, .T. ) ;
#24 = PRODUCT ( 'MS2066', 'MS2066', '', ( #21 ) ) ;
#25 = AXIS2_PLACEMENT_3D ( 'NONE', #43, #222, #218 ) ;
#26 = DIRECTION ( 'NONE',  ( 1.000000000000000000, 0.000000000000000000, 0.000000000000000000 ) ) ;
#27 = VERTEX_POINT ( 'NONE', #99 ) ;
#28 = CARTESIAN_POINT ( 'NONE',  ( -0.6220472440944883052, 7.617881663987473502E-17, 3.339999999999937685 ) ) ;
#29 = DIRECTION ( 'NONE',  ( 0.000000000000000000, -0.000000000000000000, -1.000000000000000000 ) ) ;
#30 = DIRECTION ( 'NONE',  ( -1.000000000000000000, 0.000000000000000000, 0.000000000000000000 ) ) ;
#31 = DIRECTION ( 'NONE',  ( 0.000000000000000000, 0.000000000000000000, 1.000000000000000000 ) ) ;
#32 = ADVANCED_FACE ( 'NONE', ( #332 ), #284, .T. ) ;
#33 = DIRECTION ( 'NONE',  ( 1.000000000000000000, 0.000000000000000000, 0.000000000000000000 ) ) ;
#34 = AXIS2_PLACEMENT_3D ( 'NONE', #173, #60, #63 ) ;
#35 =( NAMED_UNIT ( * ) SI_UNIT ( $, .STERADIAN. ) SOLID_ANGLE_UNIT ( ) );
#36 = EDGE_CURVE ( 'NONE', #140, #123, #200, .T. ) ;
#37 = CIRCLE ( 'NONE', #98, 0.6220472440944883052 ) ;
#38 = AXIS2_PLACEMENT_3D ( 'NONE', #133, #269, #316 ) ;
#39 = DIRECTION ( 'NONE',  ( 1.000000000000000000, 0.000000000000000000, 0.000000000000000000 ) ) ;
#40 = DIRECTION ( 'NONE',  ( -0.000000000000000000, -0.000000000000000000, -1.000000000000000000 ) ) ;
#41 = EDGE_LOOP ( 'NONE', ( #14, #251, #190, #278 ) ) ;
#42 = EDGE_CURVE ( 'NONE', #18, #44, #286, .T. ) ;
#43 = CARTESIAN_POINT ( 'NONE',  ( 0.000000000000000000, 0.000000000000000000, 3.000000000000000444 ) ) ;
#44 = VERTEX_POINT ( 'NONE', #311 ) ;
#45 = CARTESIAN_POINT ( 'NONE',  ( 0.6520000000000000240, 7.984697130440742487E-17, 3.000000000000000444 ) ) ;
#46 = FACE_OUTER_BOUND ( 'NONE', #329, .T. ) ;
#47 = CARTESIAN_POINT ( 'NONE',  ( 0.000000000000000000, 0.000000000000000000, 3.500000000000000000 ) ) ;
#48 = DIRECTION ( 'NONE',  ( -0.000000000000000000, 0.000000000000000000, 1.000000000000000000 ) ) ;
#49 = LENGTH_MEASURE_WITH_UNIT ( LENGTH_MEASURE( 0.02539999999999999897 ), #71 );
#50 = ORIENTED_EDGE ( 'NONE', *, *, #36, .F. ) ;
#51 = EDGE_CURVE ( 'NONE', #155, #103, #37, .T. ) ;
#52 = DIRECTION ( 'NONE',  ( 1.000000000000000000, 0.000000000000000000, 0.000000000000000000 ) ) ;
#53 = CARTESIAN_POINT ( 'NONE',  ( -0.6220472440944883052, 0.000000000000000000, 3.000000000000000444 ) ) ;
#54 = AXIS2_PLACEMENT_3D ( 'NONE', #261, #237, #149 ) ;
#55 = CARTESIAN_POINT ( 'NONE',  ( 0.000000000000000000, 0.000000000000000000, 3.000000000000000444 ) ) ;
#56 = DIRECTION ( 'NONE',  ( 1.000000000000000000, 0.000000000000000000, 0.000000000000000000 ) ) ;
#57 = EDGE_CURVE ( 'NONE', #44, #324, #61, .T. ) ;
#58 = LINE ( 'NONE', #165, #287 ) ;
#59 = ORIENTED_EDGE ( 'NONE', *, *, #326, .F. ) ;
#60 = DIRECTION ( 'NONE',  ( -0.000000000000000000, 0.000000000000000000, 1.000000000000000000 ) ) ;
#61 = CIRCLE ( 'NONE', #54, 0.6875000000000000000 ) ;
#62 = EDGE_LOOP ( 'NONE', ( #198, #308, #322, #23 ) ) ;
#63 = DIRECTION ( 'NONE',  ( 1.000000000000000000, 0.000000000000000000, 0.000000000000000000 ) ) ;
#64 = ORIENTED_EDGE ( 'NONE', *, *, #15, .T. ) ;
#65 = AXIS2_PLACEMENT_3D ( 'NONE', #247, #86, #39 ) ;
#66 = DIRECTION ( 'NONE',  ( 0.000000000000000000, 0.000000000000000000, 1.000000000000000000 ) ) ;
#67 = CARTESIAN_POINT ( 'NONE',  ( 0.000000000000000000, 0.000000000000000000, 3.339999999999937685 ) ) ;
#68 = EDGE_LOOP ( 'NONE', ( #59, #114, #177, #266 ) ) ;
#69 = VERTEX_POINT ( 'NONE', #234 ) ;
#70 = EDGE_CURVE ( 'NONE', #156, #221, #259, .T. ) ;
#71 =( LENGTH_UNIT ( ) NAMED_UNIT ( * ) SI_UNIT ( $, .METRE. ) );
#72 = FACE_BOUND ( 'NONE', #236, .T. ) ;
#73 =( NAMED_UNIT ( * ) PLANE_ANGLE_UNIT ( ) SI_UNIT ( $, .RADIAN. ) );
#74 = CARTESIAN_POINT ( 'NONE',  ( 0.000000000000000000, 0.000000000000000000, 0.000000000000000000 ) ) ;
#75 = CARTESIAN_POINT ( 'NONE',  ( 0.000000000000000000, 0.000000000000000000, 3.500000000000000000 ) ) ;
#76 = CARTESIAN_POINT ( 'NONE',  ( -0.6875000000000000000, 0.000000000000000000, 3.000000000000000444 ) ) ;
#77 = DIMENSIONAL_EXPONENTS ( 1.000000000000000000, 0.000000000000000000, 0.000000000000000000, 0.000000000000000000, 0.000000000000000000, 0.000000000000000000, 0.000000000000000000 ) ;
#78 = DIRECTION ( 'NONE',  ( -1.000000000000000000, 0.000000000000000000, 0.000000000000000000 ) ) ;
#79 = AXIS2_PLACEMENT_3D ( 'NONE', #240, #29, #164 ) ;
#80 = CARTESIAN_POINT ( 'NONE',  ( 0.000000000000000000, 0.000000000000000000, 3.500000000000000000 ) ) ;
#81 = STYLED_ITEM ( 'NONE', ( #131 ), #94 ) ;
#82 = DIRECTION ( 'NONE',  ( -0.000000000000000000, 0.000000000000000000, 1.000000000000000000 ) ) ;
#83 = AXIS2_PLACEMENT_3D ( 'NONE', #55, #82, #56 ) ;
#84 = CARTESIAN_POINT ( 'NONE',  ( -0.6220472440944883052, 0.000000000000000000, 3.339999999999937685 ) ) ;
#85 = FACE_OUTER_BOUND ( 'NONE', #174, .T. ) ;
#86 = DIRECTION ( 'NONE',  ( 0.000000000000000000, -0.000000000000000000, -1.000000000000000000 ) ) ;
#87 = DIRECTION ( 'NONE',  ( -0.000000000000000000, 0.000000000000000000, 1.000000000000000000 ) ) ;
#88 = ORIENTED_EDGE ( 'NONE', *, *, #207, .F. ) ;
#89 = ADVANCED_FACE ( 'NONE', ( #264 ), #102, .T. ) ;
#90 = DIRECTION ( 'NONE',  ( -0.000000000000000000, 0.000000000000000000, 1.000000000000000000 ) ) ;
#91 = AXIS2_PLACEMENT_3D ( 'NONE', #325, #90, #195 ) ;
#92 = CARTESIAN_POINT ( 'NONE',  ( 0.6520000000000000240, 7.984697130440742487E-17, 3.500000000000000000 ) ) ;
#93 = ORIENTED_EDGE ( 'NONE', *, *, #217, .T. ) ;
#94 = MANIFOLD_SOLID_BREP ( 'Chamfer1', #6 ) ;
#95 = ORIENTED_EDGE ( 'NONE', *, *, #127, .F. ) ;
#96 = AXIS2_PLACEMENT_3D ( 'NONE', #47, #331, #52 ) ;
#97 = EDGE_CURVE ( 'NONE', #27, #219, #290, .T. ) ;
#98 = AXIS2_PLACEMENT_3D ( 'NONE', #328, #130, #26 ) ;
#99 = CARTESIAN_POINT ( 'NONE',  ( -0.6420472440944956505, 7.862811023817033580E-17, 3.500000000000000000 ) ) ;
#100 = CARTESIAN_POINT ( 'NONE',  ( 0.000000000000000000, 0.000000000000000000, 0.000000000000000000 ) ) ;
#101 = PRODUCT_DEFINITION_SHAPE ( 'NONE', 'NONE',  #252 ) ;
#102 = CYLINDRICAL_SURFACE ( 'NONE', #183, 0.6875000000000000000 ) ;
#103 = VERTEX_POINT ( 'NONE', #132 ) ;
#104 = AXIS2_PLACEMENT_3D ( 'NONE', #302, #66, #253 ) ;
#105 = SURFACE_STYLE_USAGE ( .BOTH. , #210 ) ;
#106 = UNCERTAINTY_MEASURE_WITH_UNIT (LENGTH_MEASURE( 1.000000000000000082E-05 ), #228, 'distance_accuracy_value', 'NONE');
#107 = DIRECTION ( 'NONE',  ( 1.000000000000000000, 0.000000000000000000, 0.000000000000000000 ) ) ;
#108 = CIRCLE ( 'NONE', #65, 0.6420472440944956505 ) ;
#109 = EDGE_CURVE ( 'NONE', #123, #140, #230, .T. ) ;
#110 = CARTESIAN_POINT ( 'NONE',  ( 0.000000000000000000, 0.000000000000000000, 3.500000000000000000 ) ) ;
#111 = DIRECTION ( 'NONE',  ( -1.000000000000000000, 0.000000000000000000, 0.000000000000000000 ) ) ;
#112 = VERTEX_POINT ( 'NONE', #312 ) ;
#113 = DIRECTION ( 'NONE',  ( 1.000000000000000000, 0.000000000000000000, 0.000000000000000000 ) ) ;
#114 = ORIENTED_EDGE ( 'NONE', *, *, #70, .F. ) ;
#115 = EDGE_CURVE ( 'NONE', #69, #254, #215, .T. ) ;
#116 = PLANE ( 'NONE',  #91 ) ;
#117 = ORIENTED_EDGE ( 'NONE', *, *, #279, .T. ) ;
#118 = LINE ( 'NONE', #92, #134 ) ;
#119 = ORIENTED_EDGE ( 'NONE', *, *, #217, .F. ) ;
#120 = VECTOR ( 'NONE', #223, 39.37007874015748143 ) ;
#121 = ADVANCED_FACE ( 'NONE', ( #136 ), #239, .T. ) ;
#122 = ORIENTED_EDGE ( 'NONE', *, *, #161, .T. ) ;
#123 = VERTEX_POINT ( 'NONE', #2 ) ;
#124 = MECHANICAL_DESIGN_GEOMETRIC_PRESENTATION_REPRESENTATION (  '', ( #81 ), #185 ) ;
#125 = DIRECTION ( 'NONE',  ( -0.000000000000000000, -0.000000000000000000, -1.000000000000000000 ) ) ;
#126 = DIRECTION ( 'NONE',  ( -0.000000000000000000, 0.000000000000000000, 1.000000000000000000 ) ) ;
#127 = EDGE_CURVE ( 'NONE', #103, #155, #265, .T. ) ;
#128 = APPLICATION_PROTOCOL_DEFINITION ( 'draft international standard', 'automotive_design', 1998, #243 ) ;
#129 = DIRECTION ( 'NONE',  ( -0.000000000000000000, -0.000000000000000000, -1.000000000000000000 ) ) ;
#130 = DIRECTION ( 'NONE',  ( 0.000000000000000000, 0.000000000000000000, 1.000000000000000000 ) ) ;
#131 = PRESENTATION_STYLE_ASSIGNMENT (( #105 ) ) ;
#132 = CARTESIAN_POINT ( 'NONE',  ( 0.6220472440944883052, 7.617881663987471037E-17, 3.339999999999937685 ) ) ;
#133 = CARTESIAN_POINT ( 'NONE',  ( 0.000000000000000000, 0.000000000000000000, 3.500000000000000000 ) ) ;
#134 = VECTOR ( 'NONE', #216, 39.37007874015748143 ) ;
#135 = CARTESIAN_POINT ( 'NONE',  ( 0.000000000000000000, 0.000000000000000000, 0.000000000000000000 ) ) ;
#136 = FACE_OUTER_BOUND ( 'NONE', #231, .T. ) ;
#137 = CARTESIAN_POINT ( 'NONE',  ( -0.6520000000000000240, 0.000000000000000000, 3.500000000000000000 ) ) ;
#138 = ORIENTED_EDGE ( 'NONE', *, *, #181, .T. ) ;
#139 = CARTESIAN_POINT ( 'NONE',  ( 0.6220472440944883052, 0.000000000000000000, 3.339999999999937685 ) ) ;
#140 = VERTEX_POINT ( 'NONE', #319 ) ;
#141 = EDGE_CURVE ( 'NONE', #155, #123, #335, .T. ) ;
#142 = PLANE ( 'NONE',  #211 ) ;
#143 = ORIENTED_EDGE ( 'NONE', *, *, #115, .T. ) ;
#144 = DIRECTION ( 'NONE',  ( 1.000000000000000000, 0.000000000000000000, 0.000000000000000000 ) ) ;
#145 = EDGE_LOOP ( 'NONE', ( #229, #95, #117, #256 ) ) ;
#146 = EDGE_CURVE ( 'NONE', #18, #112, #274, .T. ) ;
#147 = CIRCLE ( 'NONE', #34, 0.6520000000000000240 ) ;
#148 = DIRECTION ( 'NONE',  ( 1.000000000000000000, 0.000000000000000000, 0.000000000000000000 ) ) ;
#149 = DIRECTION ( 'NONE',  ( 1.000000000000000000, 0.000000000000000000, 0.000000000000000000 ) ) ;
#150 = DIRECTION ( 'NONE',  ( 1.000000000000000000, 0.000000000000000000, 0.000000000000000000 ) ) ;
#151 = CARTESIAN_POINT ( 'NONE',  ( -0.6875000000000000000, 0.000000000000000000, 3.000000000000000444 ) ) ;
#152 = EDGE_CURVE ( 'NONE', #112, #324, #268, .T. ) ;
#153 = AXIS2_PLACEMENT_3D ( 'NONE', #299, #191, #277 ) ;
#154 = CIRCLE ( 'NONE', #262, 0.6875000000000000000 ) ;
#155 = VERTEX_POINT ( 'NONE', #84 ) ;
#156 = VERTEX_POINT ( 'NONE', #187 ) ;
#157 = AXIS2_PLACEMENT_3D ( 'NONE', #291, #31, #107 ) ;
#158 = DIRECTION ( 'NONE',  ( -0.000000000000000000, -0.000000000000000000, -1.000000000000000000 ) ) ;
#159 = CARTESIAN_POINT ( 'NONE',  ( 0.6875000000000000000, 8.419446744138051296E-17, 3.000000000000000444 ) ) ;
#160 = FILL_AREA_STYLE_COLOUR ( '', #22 ) ;
#161 = EDGE_CURVE ( 'NONE', #254, #69, #276, .T. ) ;
#162 = DIRECTION ( 'NONE',  ( 0.000000000000000000, -0.000000000000000000, -1.000000000000000000 ) ) ;
#163 =( GEOMETRIC_REPRESENTATION_CONTEXT ( 3 ) GLOBAL_UNCERTAINTY_ASSIGNED_CONTEXT ( ( #106 ) ) GLOBAL_UNIT_ASSIGNED_CONTEXT ( ( #228, #73, #233 ) ) REPRESENTATION_CONTEXT ( 'NONE', 'WORKASPACE' ) );
#164 = DIRECTION ( 'NONE',  ( 1.000000000000000000, 0.000000000000000000, 0.000000000000000000 ) ) ;
#165 = CARTESIAN_POINT ( 'NONE',  ( 0.6220472440944883052, 7.617881663987471037E-17, 3.000000000000000444 ) ) ;
#166 = ORIENTED_EDGE ( 'NONE', *, *, #42, .F. ) ;
#167 = FACE_OUTER_BOUND ( 'NONE', #145, .T. ) ;
#168 = ORIENTED_EDGE ( 'NONE', *, *, #202, .F. ) ;
#169 = FACE_OUTER_BOUND ( 'NONE', #327, .T. ) ;
#170 = CIRCLE ( 'NONE', #25, 0.6875000000000000000 ) ;
#171 = ORIENTED_EDGE ( 'NONE', *, *, #115, .F. ) ;
#172 = DIRECTION ( 'NONE',  ( 1.000000000000000000, 0.000000000000000000, 0.000000000000000000 ) ) ;
#173 = CARTESIAN_POINT ( 'NONE',  ( 0.000000000000000000, 0.000000000000000000, 3.500000000000000000 ) ) ;
#174 = EDGE_LOOP ( 'NONE', ( #88, #260, #138, #166 ) ) ;
#175 = ORIENTED_EDGE ( 'NONE', *, *, #36, .T. ) ;
#176 = DIRECTION ( 'NONE',  ( -0.1240347345892063857, 1.518987406977630933E-17, 0.9922778767136678502 ) ) ;
#177 = ORIENTED_EDGE ( 'NONE', *, *, #202, .T. ) ;
#178 = ORIENTED_EDGE ( 'NONE', *, *, #109, .T. ) ;
#179 = AXIS2_PLACEMENT_3D ( 'NONE', #67, #296, #113 ) ;
#180 = ORIENTED_EDGE ( 'NONE', *, *, #70, .T. ) ;
#181 = EDGE_CURVE ( 'NONE', #324, #44, #154, .T. ) ;
#182 =( LENGTH_UNIT ( ) NAMED_UNIT ( * ) SI_UNIT ( $, .METRE. ) );
#183 = AXIS2_PLACEMENT_3D ( 'NONE', #310, #129, #30 ) ;
#184 = DIMENSIONAL_EXPONENTS ( 1.000000000000000000, 0.000000000000000000, 0.000000000000000000, 0.000000000000000000, 0.000000000000000000, 0.000000000000000000, 0.000000000000000000 ) ;
#185 =( GEOMETRIC_REPRESENTATION_CONTEXT ( 3 ) GLOBAL_UNCERTAINTY_ASSIGNED_CONTEXT ( ( #238 ) ) GLOBAL_UNIT_ASSIGNED_CONTEXT ( ( #4, #213, #35 ) ) REPRESENTATION_CONTEXT ( 'NONE', 'WORKASPACE' ) );
#186 = DIRECTION ( 'NONE',  ( -0.000000000000000000, -0.000000000000000000, -1.000000000000000000 ) ) ;
#187 = CARTESIAN_POINT ( 'NONE',  ( -0.6520000000000000240, 0.000000000000000000, 3.500000000000000000 ) ) ;
#188 = DIRECTION ( 'NONE',  ( -0.000000000000000000, 0.000000000000000000, 1.000000000000000000 ) ) ;
#189 = LINE ( 'NONE', #139, #120 ) ;
#190 = ORIENTED_EDGE ( 'NONE', *, *, #109, .F. ) ;
#191 = DIRECTION ( 'NONE',  ( -0.000000000000000000, -0.000000000000000000, -1.000000000000000000 ) ) ;
#192 = EDGE_LOOP ( 'NONE', ( #297, #249, #224, #50 ) ) ;
#193 = CYLINDRICAL_SURFACE ( 'NONE', #288, 0.6220472440944883052 ) ;
#194 = EDGE_LOOP ( 'NONE', ( #143, #122 ) ) ;
#195 = DIRECTION ( 'NONE',  ( 1.000000000000000000, 0.000000000000000000, 0.000000000000000000 ) ) ;
#196 = ADVANCED_FACE ( 'NONE', ( #13 ), #193, .F. ) ;
#197 = DIRECTION ( 'NONE',  ( -0.000000000000000000, 0.000000000000000000, 1.000000000000000000 ) ) ;
#198 = ORIENTED_EDGE ( 'NONE', *, *, #152, .F. ) ;
#199 = ORIENTED_EDGE ( 'NONE', *, *, #57, .F. ) ;
#200 = CIRCLE ( 'NONE', #209, 0.6220472440944883052 ) ;
#201 = LINE ( 'NONE', #28, #314 ) ;
#202 = EDGE_CURVE ( 'NONE', #156, #69, #248, .T. ) ;
#203 = DIRECTION ( 'NONE',  ( -0.000000000000000000, -0.000000000000000000, -1.000000000000000000 ) ) ;
#204 = ORIENTED_EDGE ( 'NONE', *, *, #181, .F. ) ;
#205 = APPLICATION_PROTOCOL_DEFINITION ( 'draft international standard', 'automotive_design', 1998, #225 ) ;
#206 = DIRECTION ( 'NONE',  ( -1.000000000000000000, 0.000000000000000000, 0.000000000000000000 ) ) ;
#207 = EDGE_CURVE ( 'NONE', #112, #18, #170, .T. ) ;
#208 = DIRECTION ( 'NONE',  ( 1.000000000000000000, 0.000000000000000000, 0.000000000000000000 ) ) ;
#209 = AXIS2_PLACEMENT_3D ( 'NONE', #74, #48, #258 ) ;
#210 = SURFACE_SIDE_STYLE ('',( #333 ) ) ;
#211 = AXIS2_PLACEMENT_3D ( 'NONE', #110, #197, #144 ) ;
#212 = ADVANCED_FACE ( 'NONE', ( #321, #169 ), #142, .T. ) ;
#213 =( NAMED_UNIT ( * ) PLANE_ANGLE_UNIT ( ) SI_UNIT ( $, .RADIAN. ) );
#214 = CARTESIAN_POINT ( 'NONE',  ( 0.000000000000000000, 0.000000000000000000, 0.000000000000000000 ) ) ;
#215 = CIRCLE ( 'NONE', #79, 0.6520000000000000240 ) ;
#216 = DIRECTION ( 'NONE',  ( -0.000000000000000000, -0.000000000000000000, -1.000000000000000000 ) ) ;
#217 = EDGE_CURVE ( 'NONE', #219, #27, #108, .T. ) ;
#218 = DIRECTION ( 'NONE',  ( 1.000000000000000000, 0.000000000000000000, 0.000000000000000000 ) ) ;
#219 = VERTEX_POINT ( 'NONE', #303 ) ;
#220 = DIRECTION ( 'NONE',  ( -0.000000000000000000, -0.000000000000000000, -1.000000000000000000 ) ) ;
#221 = VERTEX_POINT ( 'NONE', #8 ) ;
#222 = DIRECTION ( 'NONE',  ( -0.000000000000000000, 0.000000000000000000, 1.000000000000000000 ) ) ;
#223 = DIRECTION ( 'NONE',  ( 0.1240347345892063857, 0.000000000000000000, 0.9922778767136678502 ) ) ;
#224 = ORIENTED_EDGE ( 'NONE', *, *, #141, .T. ) ;
#225 = APPLICATION_CONTEXT ( 'automotive_design' ) ;
#226 = ORIENTED_EDGE ( 'NONE', *, *, #257, .F. ) ;
#227 = AXIS2_PLACEMENT_3D ( 'NONE', #214, #188, #208 ) ;
#228 =( CONVERSION_BASED_UNIT ( 'INCH', #49 ) LENGTH_UNIT ( ) NAMED_UNIT ( #184 ) );
#229 = ORIENTED_EDGE ( 'NONE', *, *, #15, .F. ) ;
#230 = CIRCLE ( 'NONE', #227, 0.6220472440944883052 ) ;
#231 = EDGE_LOOP ( 'NONE', ( #226, #9, #171, #168 ) ) ;
#232 = VECTOR ( 'NONE', #186, 39.37007874015748143 ) ;
#233 =( NAMED_UNIT ( * ) SI_UNIT ( $, .STERADIAN. ) SOLID_ANGLE_UNIT ( ) );
#234 = CARTESIAN_POINT ( 'NONE',  ( -0.6520000000000000240, 0.000000000000000000, 3.000000000000000444 ) ) ;
#235 = CARTESIAN_POINT ( 'NONE',  ( 0.000000000000000000, 0.000000000000000000, 0.000000000000000000 ) ) ;
#236 = EDGE_LOOP ( 'NONE', ( #178, #175 ) ) ;
#237 = DIRECTION ( 'NONE',  ( -0.000000000000000000, 0.000000000000000000, 1.000000000000000000 ) ) ;
#238 = UNCERTAINTY_MEASURE_WITH_UNIT (LENGTH_MEASURE( 1.000000000000000082E-05 ), #4, 'distance_accuracy_value', 'NONE');
#239 = CYLINDRICAL_SURFACE ( 'NONE', #304, 0.6520000000000000240 ) ;
#240 = CARTESIAN_POINT ( 'NONE',  ( 0.000000000000000000, 0.000000000000000000, 3.000000000000000444 ) ) ;
#241 = ADVANCED_FACE ( 'NONE', ( #167 ), #294, .F. ) ;
#242 = AXIS2_PLACEMENT_3D ( 'NONE', #293, #162, #33 ) ;
#243 = APPLICATION_CONTEXT ( 'automotive_design' ) ;
#244 = ADVANCED_FACE ( 'NONE', ( #280 ), #323, .F. ) ;
#245 = FACE_OUTER_BOUND ( 'NONE', #289, .T. ) ;
#246 = VECTOR ( 'NONE', #158, 39.37007874015748143 ) ;
#247 = CARTESIAN_POINT ( 'NONE',  ( 0.000000000000000000, 0.000000000000000000, 3.500000000000000000 ) ) ;
#248 = LINE ( 'NONE', #137, #317 ) ;
#249 = ORIENTED_EDGE ( 'NONE', *, *, #127, .T. ) ;
#250 = FACE_BOUND ( 'NONE', #194, .T. ) ;
#251 = ORIENTED_EDGE ( 'NONE', *, *, #334, .T. ) ;
#252 = PRODUCT_DEFINITION ( 'UNKNOWN', '', #301, #313 ) ;
#253 = DIRECTION ( 'NONE',  ( 1.000000000000000000, 0.000000000000000000, 0.000000000000000000 ) ) ;
#254 = VERTEX_POINT ( 'NONE', #45 ) ;
#255 = AXIS2_PLACEMENT_3D ( 'NONE', #235, #330, #150 ) ;
#256 = ORIENTED_EDGE ( 'NONE', *, *, #97, .F. ) ;
#257 = EDGE_CURVE ( 'NONE', #221, #156, #147, .T. ) ;
#258 = DIRECTION ( 'NONE',  ( 1.000000000000000000, 0.000000000000000000, 0.000000000000000000 ) ) ;
#259 = CIRCLE ( 'NONE', #96, 0.6520000000000000240 ) ;
#260 = ORIENTED_EDGE ( 'NONE', *, *, #152, .T. ) ;
#261 = CARTESIAN_POINT ( 'NONE',  ( 0.000000000000000000, 0.000000000000000000, 0.000000000000000000 ) ) ;
#262 = AXIS2_PLACEMENT_3D ( 'NONE', #135, #87, #172 ) ;
#263 = ADVANCED_FACE ( 'NONE', ( #85 ), #11, .T. ) ;
#264 = FACE_OUTER_BOUND ( 'NONE', #62, .T. ) ;
#265 = CIRCLE ( 'NONE', #157, 0.6220472440944883052 ) ;
#266 = ORIENTED_EDGE ( 'NONE', *, *, #161, .F. ) ;
#267 = PRESENTATION_LAYER_ASSIGNMENT (  '', '', ( #81 ) ) ;
#268 = LINE ( 'NONE', #159, #232 ) ;
#269 = DIRECTION ( 'NONE',  ( 0.000000000000000000, -0.000000000000000000, -1.000000000000000000 ) ) ;
#270 = FILL_AREA_STYLE ('',( #160 ) ) ;
#271 = AXIS2_PLACEMENT_3D ( 'NONE', #295, #40, #275 ) ;
#272 = DIRECTION ( 'NONE',  ( -0.000000000000000000, -0.000000000000000000, -1.000000000000000000 ) ) ;
#273 = ORIENTED_EDGE ( 'NONE', *, *, #279, .F. ) ;
#274 = CIRCLE ( 'NONE', #83, 0.6875000000000000000 ) ;
#275 = DIRECTION ( 'NONE',  ( -1.000000000000000000, 0.000000000000000000, 0.000000000000000000 ) ) ;
#276 = CIRCLE ( 'NONE', #242, 0.6520000000000000240 ) ;
#277 = DIRECTION ( 'NONE',  ( -1.000000000000000000, 0.000000000000000000, 0.000000000000000000 ) ) ;
#278 = ORIENTED_EDGE ( 'NONE', *, *, #141, .F. ) ;
#279 = EDGE_CURVE ( 'NONE', #103, #219, #189, .T. ) ;
#280 = FACE_OUTER_BOUND ( 'NONE', #192, .T. ) ;
#281 = DIRECTION ( 'NONE',  ( -0.000000000000000000, -0.000000000000000000, -1.000000000000000000 ) ) ;
#282 = PRODUCT_RELATED_PRODUCT_CATEGORY ( 'part', '', ( #24 ) ) ;
#283 = ORIENTED_EDGE ( 'NONE', *, *, #146, .T. ) ;
#284 = CYLINDRICAL_SURFACE ( 'NONE', #20, 0.6520000000000000240 ) ;
#285 = ORIENTED_EDGE ( 'NONE', *, *, #207, .T. ) ;
#286 = LINE ( 'NONE', #151, #298 ) ;
#287 = VECTOR ( 'NONE', #272, 39.37007874015748143 ) ;
#288 = AXIS2_PLACEMENT_3D ( 'NONE', #5, #281, #111 ) ;
#289 = EDGE_LOOP ( 'NONE', ( #306, #64, #119, #273 ) ) ;
#290 = CIRCLE ( 'NONE', #38, 0.6420472440944956505 ) ;
#291 = CARTESIAN_POINT ( 'NONE',  ( 0.000000000000000000, 0.000000000000000000, 3.339999999999937685 ) ) ;
#292 = LENGTH_MEASURE_WITH_UNIT ( LENGTH_MEASURE( 0.02539999999999999897 ), #182 );
#293 = CARTESIAN_POINT ( 'NONE',  ( 0.000000000000000000, 0.000000000000000000, 3.000000000000000444 ) ) ;
#294 = CONICAL_SURFACE ( 'NONE', #179, 0.6220472440944883052, 0.1243549945467593426 ) ;
#295 = CARTESIAN_POINT ( 'NONE',  ( 0.000000000000000000, 0.000000000000000000, 3.000000000000000444 ) ) ;
#296 = DIRECTION ( 'NONE',  ( 0.000000000000000000, 0.000000000000000000, 1.000000000000000000 ) ) ;
#297 = ORIENTED_EDGE ( 'NONE', *, *, #334, .F. ) ;
#298 = VECTOR ( 'NONE', #125, 39.37007874015748143 ) ;
#299 = CARTESIAN_POINT ( 'NONE',  ( 0.000000000000000000, 0.000000000000000000, 3.000000000000000444 ) ) ;
#300 = ORIENTED_EDGE ( 'NONE', *, *, #257, .T. ) ;
#301 = PRODUCT_DEFINITION_FORMATION_WITH_SPECIFIED_SOURCE ( 'ANY', '', #24, .NOT_KNOWN. ) ;
#302 = CARTESIAN_POINT ( 'NONE',  ( 0.000000000000000000, 0.000000000000000000, 3.339999999999937685 ) ) ;
#303 = CARTESIAN_POINT ( 'NONE',  ( 0.6420472440944956505, 0.000000000000000000, 3.500000000000000000 ) ) ;
#304 = AXIS2_PLACEMENT_3D ( 'NONE', #80, #1, #78 ) ;
#305 = EDGE_LOOP ( 'NONE', ( #283, #285 ) ) ;
#306 = ORIENTED_EDGE ( 'NONE', *, *, #51, .F. ) ;
#307 = SHAPE_DEFINITION_REPRESENTATION ( #101, #315 ) ;
#308 = ORIENTED_EDGE ( 'NONE', *, *, #146, .F. ) ;
#309 = ADVANCED_FACE ( 'NONE', ( #250, #320 ), #116, .T. ) ;
#310 = CARTESIAN_POINT ( 'NONE',  ( 0.000000000000000000, 0.000000000000000000, 3.000000000000000444 ) ) ;
#311 = CARTESIAN_POINT ( 'NONE',  ( -0.6875000000000000000, 0.000000000000000000, 0.000000000000000000 ) ) ;
#312 = CARTESIAN_POINT ( 'NONE',  ( 0.6875000000000000000, 8.419446744138051296E-17, 3.000000000000000444 ) ) ;
#313 = PRODUCT_DEFINITION_CONTEXT ( 'detailed design', #225, 'design' ) ;
#314 = VECTOR ( 'NONE', #176, 39.37007874015748143 ) ;
#315 = ADVANCED_BREP_SHAPE_REPRESENTATION ( 'MS2066', ( #94, #255 ), #163 ) ;
#316 = DIRECTION ( 'NONE',  ( 1.000000000000000000, 0.000000000000000000, 0.000000000000000000 ) ) ;
#317 = VECTOR ( 'NONE', #220, 39.37007874015748143 ) ;
#318 = ADVANCED_FACE ( 'NONE', ( #245 ), #3, .F. ) ;
#319 = CARTESIAN_POINT ( 'NONE',  ( 0.6220472440944883052, 7.617881663987471037E-17, 0.000000000000000000 ) ) ;
#320 = FACE_OUTER_BOUND ( 'NONE', #305, .T. ) ;
#321 = FACE_BOUND ( 'NONE', #17, .T. ) ;
#322 = ORIENTED_EDGE ( 'NONE', *, *, #42, .T. ) ;
#323 = CYLINDRICAL_SURFACE ( 'NONE', #153, 0.6220472440944883052 ) ;
#324 = VERTEX_POINT ( 'NONE', #16 ) ;
#325 = CARTESIAN_POINT ( 'NONE',  ( 0.000000000000000000, 0.000000000000000000, 3.000000000000000444 ) ) ;
#326 = EDGE_CURVE ( 'NONE', #221, #254, #118, .T. ) ;
#327 = EDGE_LOOP ( 'NONE', ( #180, #300 ) ) ;
#328 = CARTESIAN_POINT ( 'NONE',  ( 0.000000000000000000, 0.000000000000000000, 3.339999999999937685 ) ) ;
#329 = EDGE_LOOP ( 'NONE', ( #199, #204 ) ) ;
#330 = DIRECTION ( 'NONE',  ( 0.000000000000000000, 0.000000000000000000, 1.000000000000000000 ) ) ;
#331 = DIRECTION ( 'NONE',  ( -0.000000000000000000, 0.000000000000000000, 1.000000000000000000 ) ) ;
#332 = FACE_OUTER_BOUND ( 'NONE', #68, .T. ) ;
#333 = SURFACE_STYLE_FILL_AREA ( #270 ) ;
#334 = EDGE_CURVE ( 'NONE', #103, #140, #58, .T. ) ;
#335 = LINE ( 'NONE', #53, #246 ) ;
ENDSEC;
END-ISO-10303-21;
