ISO-10303-21;
HEADER;
FILE_DESCRIPTION (( 'STEP AP214' ),
    '1' );
FILE_NAME ('MS2065.STEP',
    '2025-05-08T17:39:25',
    ( '' ),
    ( '' ),
    'SwSTEP 2.0',
    'SolidWorks 2023',
    '' );
FILE_SCHEMA (( 'AUTOMOTIVE_DESIGN' ));
ENDSEC;

DATA;
#1 = DIRECTION ( 'NONE',  ( 0.000000000000000000, 0.000000000000000000, 1.000000000000000000 ) ) ;
#2 = SURFACE_STYLE_USAGE ( .BOTH. , #159 ) ;
#3 = ORIENTED_EDGE ( 'NONE', *, *, #318, .T. ) ;
#4 = CARTESIAN_POINT ( 'NONE',  ( 0.6420472440944896553, 0.000000000000000000, 2.375000000000000000 ) ) ;
#5 = DIRECTION ( 'NONE',  ( -0.000000000000000000, 0.000000000000000000, 1.000000000000000000 ) ) ;
#6 = DIRECTION ( 'NONE',  ( 1.000000000000000000, 0.000000000000000000, 0.000000000000000000 ) ) ;
#7 = EDGE_LOOP ( 'NONE', ( #232, #135 ) ) ;
#8 = DIRECTION ( 'NONE',  ( -0.1240347345892059555, 1.518987406977625694E-17, 0.9922778767136678502 ) ) ;
#9 = EDGE_LOOP ( 'NONE', ( #178, #241, #306, #109 ) ) ;
#10 = CARTESIAN_POINT ( 'NONE',  ( 0.6875000000000000000, 8.419446744138052529E-17, 1.875000000000000000 ) ) ;
#11 = ORIENTED_EDGE ( 'NONE', *, *, #29, .T. ) ;
#12 = VECTOR ( 'NONE', #103, 39.37007874015748143 ) ;
#13 = ADVANCED_FACE ( 'NONE', ( #274 ), #324, .T. ) ;
#14 = AXIS2_PLACEMENT_3D ( 'NONE', #303, #182, #290 ) ;
#15 = DIRECTION ( 'NONE',  ( -0.000000000000000000, -0.000000000000000000, -1.000000000000000000 ) ) ;
#16 = VERTEX_POINT ( 'NONE', #230 ) ;
#17 = CYLINDRICAL_SURFACE ( 'NONE', #208, 0.6220472440944883052 ) ;
#18 = DIRECTION ( 'NONE',  ( 1.000000000000000000, 0.000000000000000000, 0.000000000000000000 ) ) ;
#19 = VERTEX_POINT ( 'NONE', #105 ) ;
#20 = DIRECTION ( 'NONE',  ( 1.000000000000000000, 0.000000000000000000, 0.000000000000000000 ) ) ;
#21 = DIRECTION ( 'NONE',  ( 0.000000000000000000, 0.000000000000000000, 1.000000000000000000 ) ) ;
#22 = ORIENTED_EDGE ( 'NONE', *, *, #170, .F. ) ;
#23 = LINE ( 'NONE', #146, #185 ) ;
#24 = CARTESIAN_POINT ( 'NONE',  ( 0.000000000000000000, 0.000000000000000000, 0.000000000000000000 ) ) ;
#25 = CARTESIAN_POINT ( 'NONE',  ( 0.000000000000000000, 0.000000000000000000, 0.000000000000000000 ) ) ;
#26 = CIRCLE ( 'NONE', #256, 0.6875000000000000000 ) ;
#27 = DIRECTION ( 'NONE',  ( -1.000000000000000000, 0.000000000000000000, 0.000000000000000000 ) ) ;
#28 = ORIENTED_EDGE ( 'NONE', *, *, #141, .T. ) ;
#29 = EDGE_CURVE ( 'NONE', #186, #57, #326, .T. ) ;
#30 = CARTESIAN_POINT ( 'NONE',  ( 0.000000000000000000, 0.000000000000000000, 1.875000000000000000 ) ) ;
#31 = DIRECTION ( 'NONE',  ( -0.000000000000000000, -0.000000000000000000, -1.000000000000000000 ) ) ;
#32 = EDGE_LOOP ( 'NONE', ( #56, #252, #101, #329 ) ) ;
#33 = ORIENTED_EDGE ( 'NONE', *, *, #112, .F. ) ;
#34 = DIRECTION ( 'NONE',  ( 0.000000000000000000, 0.000000000000000000, 1.000000000000000000 ) ) ;
#35 = EDGE_CURVE ( 'NONE', #323, #248, #195, .T. ) ;
#36 = DIRECTION ( 'NONE',  ( -0.000000000000000000, 0.000000000000000000, 1.000000000000000000 ) ) ;
#37 = CIRCLE ( 'NONE', #89, 0.6220472440944883052 ) ;
#38 = VERTEX_POINT ( 'NONE', #265 ) ;
#39 = FACE_BOUND ( 'NONE', #7, .T. ) ;
#40 = EDGE_LOOP ( 'NONE', ( #295, #28, #237, #22 ) ) ;
#41 = EDGE_CURVE ( 'NONE', #286, #16, #238, .T. ) ;
#42 = LINE ( 'NONE', #76, #331 ) ;
#43 = ORIENTED_EDGE ( 'NONE', *, *, #272, .F. ) ;
#44 =( CONVERSION_BASED_UNIT ( 'INCH', #129 ) LENGTH_UNIT ( ) NAMED_UNIT ( #267 ) );
#45 = FACE_OUTER_BOUND ( 'NONE', #67, .T. ) ;
#46 = DIRECTION ( 'NONE',  ( -0.000000000000000000, -0.000000000000000000, -1.000000000000000000 ) ) ;
#47 = EDGE_CURVE ( 'NONE', #57, #38, #110, .T. ) ;
#48 = ORIENTED_EDGE ( 'NONE', *, *, #112, .T. ) ;
#49 = LINE ( 'NONE', #151, #292 ) ;
#50 = DIRECTION ( 'NONE',  ( -0.000000000000000000, 0.000000000000000000, 1.000000000000000000 ) ) ;
#51 = EDGE_LOOP ( 'NONE', ( #106, #75, #219, #33 ) ) ;
#52 = CARTESIAN_POINT ( 'NONE',  ( 0.000000000000000000, 0.000000000000000000, 1.875000000000000000 ) ) ;
#53 = CIRCLE ( 'NONE', #142, 0.6520000000000000240 ) ;
#54 = EDGE_CURVE ( 'NONE', #194, #248, #60, .T. ) ;
#55 = PRODUCT ( 'MS2065', 'MS2065', '', ( #327 ) ) ;
#56 = ORIENTED_EDGE ( 'NONE', *, *, #35, .F. ) ;
#57 = VERTEX_POINT ( 'NONE', #158 ) ;
#58 = CARTESIAN_POINT ( 'NONE',  ( 0.000000000000000000, 0.000000000000000000, 1.875000000000000000 ) ) ;
#59 = FACE_OUTER_BOUND ( 'NONE', #161, .T. ) ;
#60 = CIRCLE ( 'NONE', #317, 0.6420472440944896553 ) ;
#61 = CIRCLE ( 'NONE', #245, 0.6420472440944896553 ) ;
#62 = DIRECTION ( 'NONE',  ( 0.000000000000000000, -0.000000000000000000, -1.000000000000000000 ) ) ;
#63 = SURFACE_STYLE_FILL_AREA ( #184 ) ;
#64 = CONICAL_SURFACE ( 'NONE', #313, 0.6220472440944883052, 0.1243549945467589124 ) ;
#65 = ORIENTED_EDGE ( 'NONE', *, *, #321, .T. ) ;
#66 = AXIS2_PLACEMENT_3D ( 'NONE', #179, #210, #20 ) ;
#67 = EDGE_LOOP ( 'NONE', ( #148, #11 ) ) ;
#68 = CARTESIAN_POINT ( 'NONE',  ( -0.6220472440944883052, 7.617881663987473502E-17, 2.214999999999985203 ) ) ;
#69 = FACE_BOUND ( 'NONE', #254, .T. ) ;
#70 = FACE_OUTER_BOUND ( 'NONE', #126, .T. ) ;
#71 = STYLED_ITEM ( 'NONE', ( #80 ), #273 ) ;
#72 = VECTOR ( 'NONE', #221, 39.37007874015748143 ) ;
#73 = EDGE_LOOP ( 'NONE', ( #270, #125, #278, #3 ) ) ;
#74 = DIRECTION ( 'NONE',  ( -1.000000000000000000, 0.000000000000000000, 0.000000000000000000 ) ) ;
#75 = ORIENTED_EDGE ( 'NONE', *, *, #266, .F. ) ;
#76 = CARTESIAN_POINT ( 'NONE',  ( 0.6220472440944883052, 7.617881663987473502E-17, 1.875000000000000000 ) ) ;
#77 = DIRECTION ( 'NONE',  ( 1.000000000000000000, 0.000000000000000000, 0.000000000000000000 ) ) ;
#78 = DIRECTION ( 'NONE',  ( 1.000000000000000000, 0.000000000000000000, 0.000000000000000000 ) ) ;
#79 = CARTESIAN_POINT ( 'NONE',  ( 0.000000000000000000, 0.000000000000000000, 2.375000000000000000 ) ) ;
#80 = PRESENTATION_STYLE_ASSIGNMENT (( #2 ) ) ;
#81 = CARTESIAN_POINT ( 'NONE',  ( 0.000000000000000000, 0.000000000000000000, 0.000000000000000000 ) ) ;
#82 = CARTESIAN_POINT ( 'NONE',  ( 0.000000000000000000, 0.000000000000000000, 1.875000000000000000 ) ) ;
#83 = CARTESIAN_POINT ( 'NONE',  ( 0.000000000000000000, 0.000000000000000000, 2.375000000000000000 ) ) ;
#84 = AXIS2_PLACEMENT_3D ( 'NONE', #249, #36, #198 ) ;
#85 = EDGE_LOOP ( 'NONE', ( #43, #277, #128, #264 ) ) ;
#86 = EDGE_LOOP ( 'NONE', ( #202, #322, #175, #209 ) ) ;
#87 = FACE_OUTER_BOUND ( 'NONE', #9, .T. ) ;
#88 = ADVANCED_FACE ( 'NONE', ( #162 ), #176, .F. ) ;
#89 = AXIS2_PLACEMENT_3D ( 'NONE', #24, #150, #330 ) ;
#90 = SHAPE_DEFINITION_REPRESENTATION ( #334, #173 ) ;
#91 = PRODUCT_DEFINITION_CONTEXT ( 'detailed design', #201, 'design' ) ;
#92 = CARTESIAN_POINT ( 'NONE',  ( 0.000000000000000000, 0.000000000000000000, 2.375000000000000000 ) ) ;
#93 = AXIS2_PLACEMENT_3D ( 'NONE', #92, #240, #281 ) ;
#94 = DIRECTION ( 'NONE',  ( -0.000000000000000000, -0.000000000000000000, -1.000000000000000000 ) ) ;
#95 = DIRECTION ( 'NONE',  ( 0.000000000000000000, 0.000000000000000000, 1.000000000000000000 ) ) ;
#96 = AXIS2_PLACEMENT_3D ( 'NONE', #234, #1, #214 ) ;
#97 = DIRECTION ( 'NONE',  ( -0.000000000000000000, -0.000000000000000000, -1.000000000000000000 ) ) ;
#98 = CARTESIAN_POINT ( 'NONE',  ( 0.000000000000000000, 0.000000000000000000, 1.875000000000000000 ) ) ;
#99 = AXIS2_PLACEMENT_3D ( 'NONE', #58, #262, #153 ) ;
#100 = CARTESIAN_POINT ( 'NONE',  ( 0.000000000000000000, 0.000000000000000000, 0.000000000000000000 ) ) ;
#101 = ORIENTED_EDGE ( 'NONE', *, *, #309, .T. ) ;
#102 = CARTESIAN_POINT ( 'NONE',  ( 0.6520000000000000240, 7.984697130440741254E-17, 1.875000000000000000 ) ) ;
#103 = DIRECTION ( 'NONE',  ( -0.000000000000000000, -0.000000000000000000, -1.000000000000000000 ) ) ;
#104 = EDGE_CURVE ( 'NONE', #111, #19, #243, .T. ) ;
#105 = CARTESIAN_POINT ( 'NONE',  ( -0.6875000000000000000, 0.000000000000000000, 0.000000000000000000 ) ) ;
#106 = ORIENTED_EDGE ( 'NONE', *, *, #321, .F. ) ;
#107 = DIRECTION ( 'NONE',  ( -0.000000000000000000, 0.000000000000000000, 1.000000000000000000 ) ) ;
#108 = FACE_OUTER_BOUND ( 'NONE', #213, .T. ) ;
#109 = ORIENTED_EDGE ( 'NONE', *, *, #197, .F. ) ;
#110 = LINE ( 'NONE', #139, #205 ) ;
#111 = VERTEX_POINT ( 'NONE', #287 ) ;
#112 = EDGE_CURVE ( 'NONE', #282, #38, #261, .T. ) ;
#113 = DIRECTION ( 'NONE',  ( 0.000000000000000000, -0.000000000000000000, -1.000000000000000000 ) ) ;
#114 = ORIENTED_EDGE ( 'NONE', *, *, #160, .T. ) ;
#115 = DIRECTION ( 'NONE',  ( -0.000000000000000000, 0.000000000000000000, 1.000000000000000000 ) ) ;
#116 = DIRECTION ( 'NONE',  ( -0.000000000000000000, -0.000000000000000000, -1.000000000000000000 ) ) ;
#117 = AXIS2_PLACEMENT_3D ( 'NONE', #83, #235, #27 ) ;
#118 = EDGE_CURVE ( 'NONE', #248, #194, #61, .T. ) ;
#119 = CARTESIAN_POINT ( 'NONE',  ( -0.6875000000000000000, 0.000000000000000000, 1.875000000000000000 ) ) ;
#120 = CLOSED_SHELL ( 'NONE', ( #199, #251, #283, #138, #314, #13, #255, #147, #263, #244, #88 ) ) ;
#121 = UNCERTAINTY_MEASURE_WITH_UNIT (LENGTH_MEASURE( 1.000000000000000082E-05 ), #44, 'distance_accuracy_value', 'NONE');
#122 = ORIENTED_EDGE ( 'NONE', *, *, #223, .F. ) ;
#123 = LENGTH_MEASURE_WITH_UNIT ( LENGTH_MEASURE( 0.02539999999999999897 ), #206 );
#124 = CIRCLE ( 'NONE', #66, 0.6875000000000000000 ) ;
#125 = ORIENTED_EDGE ( 'NONE', *, *, #231, .F. ) ;
#126 = EDGE_LOOP ( 'NONE', ( #131, #65, #332, #204 ) ) ;
#127 = CIRCLE ( 'NONE', #220, 0.6875000000000000000 ) ;
#128 = ORIENTED_EDGE ( 'NONE', *, *, #223, .T. ) ;
#129 = LENGTH_MEASURE_WITH_UNIT ( LENGTH_MEASURE( 0.02539999999999999897 ), #293 );
#130 = DIRECTION ( 'NONE',  ( 1.000000000000000000, 0.000000000000000000, 0.000000000000000000 ) ) ;
#131 = ORIENTED_EDGE ( 'NONE', *, *, #29, .F. ) ;
#132 = DIRECTION ( 'NONE',  ( 0.000000000000000000, 0.000000000000000000, 1.000000000000000000 ) ) ;
#133 = DIRECTION ( 'NONE',  ( 0.000000000000000000, -0.000000000000000000, -1.000000000000000000 ) ) ;
#134 = AXIS2_PLACEMENT_3D ( 'NONE', #52, #97, #298 ) ;
#135 = ORIENTED_EDGE ( 'NONE', *, *, #118, .T. ) ;
#136 = CARTESIAN_POINT ( 'NONE',  ( 0.6520000000000000240, 7.984697130440741254E-17, 2.375000000000000000 ) ) ;
#137 = CARTESIAN_POINT ( 'NONE',  ( 0.000000000000000000, 0.000000000000000000, 0.000000000000000000 ) ) ;
#138 = ADVANCED_FACE ( 'NONE', ( #87 ), #196, .F. ) ;
#139 = CARTESIAN_POINT ( 'NONE',  ( -0.6520000000000000240, 0.000000000000000000, 2.375000000000000000 ) ) ;
#140 = COLOUR_RGB ( '',0.7921568627450980005, 0.8196078431372548767, 0.9333333333333333481 ) ;
#141 = EDGE_CURVE ( 'NONE', #212, #323, #328, .T. ) ;
#142 = AXIS2_PLACEMENT_3D ( 'NONE', #152, #304, #130 ) ;
#143 = DIMENSIONAL_EXPONENTS ( 1.000000000000000000, 0.000000000000000000, 0.000000000000000000, 0.000000000000000000, 0.000000000000000000, 0.000000000000000000, 0.000000000000000000 ) ;
#144 =( GEOMETRIC_REPRESENTATION_CONTEXT ( 3 ) GLOBAL_UNCERTAINTY_ASSIGNED_CONTEXT ( ( #319 ) ) GLOBAL_UNIT_ASSIGNED_CONTEXT ( ( #301, #253, #172 ) ) REPRESENTATION_CONTEXT ( 'NONE', 'WORKASPACE' ) );
#145 = DIRECTION ( 'NONE',  ( 1.000000000000000000, 0.000000000000000000, 0.000000000000000000 ) ) ;
#146 = CARTESIAN_POINT ( 'NONE',  ( 0.6220472440944883052, 0.000000000000000000, 2.214999999999985203 ) ) ;
#147 = ADVANCED_FACE ( 'NONE', ( #108, #307 ), #280, .F. ) ;
#148 = ORIENTED_EDGE ( 'NONE', *, *, #266, .T. ) ;
#149 =( NAMED_UNIT ( * ) SI_UNIT ( $, .STERADIAN. ) SOLID_ANGLE_UNIT ( ) );
#150 = DIRECTION ( 'NONE',  ( -0.000000000000000000, 0.000000000000000000, 1.000000000000000000 ) ) ;
#151 = CARTESIAN_POINT ( 'NONE',  ( 0.6520000000000000240, 7.984697130440741254E-17, 2.375000000000000000 ) ) ;
#152 = CARTESIAN_POINT ( 'NONE',  ( 0.000000000000000000, 0.000000000000000000, 2.375000000000000000 ) ) ;
#153 = DIRECTION ( 'NONE',  ( -1.000000000000000000, 0.000000000000000000, 0.000000000000000000 ) ) ;
#154 = FACE_OUTER_BOUND ( 'NONE', #86, .T. ) ;
#155 = CARTESIAN_POINT ( 'NONE',  ( 0.000000000000000000, 0.000000000000000000, 2.214999999999985203 ) ) ;
#156 = DIRECTION ( 'NONE',  ( 1.000000000000000000, 0.000000000000000000, 0.000000000000000000 ) ) ;
#157 = AXIS2_PLACEMENT_3D ( 'NONE', #300, #132, #78 ) ;
#158 = CARTESIAN_POINT ( 'NONE',  ( -0.6520000000000000240, 0.000000000000000000, 2.375000000000000000 ) ) ;
#159 = SURFACE_SIDE_STYLE ('',( #63 ) ) ;
#160 = EDGE_CURVE ( 'NONE', #38, #282, #233, .T. ) ;
#161 = EDGE_LOOP ( 'NONE', ( #288, #222 ) ) ;
#162 = FACE_OUTER_BOUND ( 'NONE', #32, .T. ) ;
#163 = APPLICATION_PROTOCOL_DEFINITION ( 'draft international standard', 'automotive_design', 1998, #201 ) ;
#164 = AXIS2_PLACEMENT_3D ( 'NONE', #98, #299, #271 ) ;
#165 = EDGE_CURVE ( 'NONE', #335, #312, #284, .T. ) ;
#166 = MECHANICAL_DESIGN_GEOMETRIC_PRESENTATION_REPRESENTATION (  '', ( #71 ), #144 ) ;
#167 = AXIS2_PLACEMENT_3D ( 'NONE', #308, #107, #156 ) ;
#168 = PRODUCT_DEFINITION_FORMATION_WITH_SPECIFIED_SOURCE ( 'ANY', '', #55, .NOT_KNOWN. ) ;
#169 = CARTESIAN_POINT ( 'NONE',  ( -0.6220472440944883052, 0.000000000000000000, 0.000000000000000000 ) ) ;
#170 = EDGE_CURVE ( 'NONE', #312, #335, #37, .T. ) ;
#171 = APPLICATION_PROTOCOL_DEFINITION ( 'draft international standard', 'automotive_design', 1998, #218 ) ;
#172 =( NAMED_UNIT ( * ) SI_UNIT ( $, .STERADIAN. ) SOLID_ANGLE_UNIT ( ) );
#173 = ADVANCED_BREP_SHAPE_REPRESENTATION ( 'MS2065', ( #273, #250 ), #216 ) ;
#174 = AXIS2_PLACEMENT_3D ( 'NONE', #155, #34, #217 ) ;
#175 = ORIENTED_EDGE ( 'NONE', *, *, #54, .F. ) ;
#176 = CONICAL_SURFACE ( 'NONE', #174, 0.6220472440944883052, 0.1243549945467589124 ) ;
#177 = CARTESIAN_POINT ( 'NONE',  ( 0.6875000000000000000, 8.419446744138052529E-17, 1.875000000000000000 ) ) ;
#178 = ORIENTED_EDGE ( 'NONE', *, *, #187, .T. ) ;
#179 = CARTESIAN_POINT ( 'NONE',  ( 0.000000000000000000, 0.000000000000000000, 0.000000000000000000 ) ) ;
#180 = CARTESIAN_POINT ( 'NONE',  ( -0.6220472440944883052, 0.000000000000000000, 2.214999999999985203 ) ) ;
#181 = CARTESIAN_POINT ( 'NONE',  ( 0.000000000000000000, 0.000000000000000000, 1.875000000000000000 ) ) ;
#182 = DIRECTION ( 'NONE',  ( -0.000000000000000000, 0.000000000000000000, 1.000000000000000000 ) ) ;
#183 = DIRECTION ( 'NONE',  ( 1.000000000000000000, 0.000000000000000000, 0.000000000000000000 ) ) ;
#184 = FILL_AREA_STYLE ('',( #305 ) ) ;
#185 = VECTOR ( 'NONE', #296, 39.37007874015748854 ) ;
#186 = VERTEX_POINT ( 'NONE', #136 ) ;
#187 = EDGE_CURVE ( 'NONE', #323, #212, #297, .T. ) ;
#188 = LINE ( 'NONE', #279, #12 ) ;
#189 = DIRECTION ( 'NONE',  ( 1.000000000000000000, 0.000000000000000000, 0.000000000000000000 ) ) ;
#190 = DIRECTION ( 'NONE',  ( 1.000000000000000000, 0.000000000000000000, 0.000000000000000000 ) ) ;
#191 = AXIS2_PLACEMENT_3D ( 'NONE', #81, #50, #183 ) ;
#192 = ORIENTED_EDGE ( 'NONE', *, *, #318, .F. ) ;
#193 = CARTESIAN_POINT ( 'NONE',  ( 0.000000000000000000, 0.000000000000000000, 2.375000000000000000 ) ) ;
#194 = VERTEX_POINT ( 'NONE', #4 ) ;
#195 = LINE ( 'NONE', #68, #316 ) ;
#196 = CYLINDRICAL_SURFACE ( 'NONE', #99, 0.6220472440944883052 ) ;
#197 = EDGE_CURVE ( 'NONE', #323, #335, #188, .T. ) ;
#198 = DIRECTION ( 'NONE',  ( 1.000000000000000000, 0.000000000000000000, 0.000000000000000000 ) ) ;
#199 = ADVANCED_FACE ( 'NONE', ( #154 ), #64, .F. ) ;
#200 = PRODUCT_RELATED_PRODUCT_CATEGORY ( 'part', '', ( #55 ) ) ;
#201 = APPLICATION_CONTEXT ( 'automotive_design' ) ;
#202 = ORIENTED_EDGE ( 'NONE', *, *, #187, .F. ) ;
#203 = AXIS2_PLACEMENT_3D ( 'NONE', #137, #5, #310 ) ;
#204 = ORIENTED_EDGE ( 'NONE', *, *, #47, .F. ) ;
#205 = VECTOR ( 'NONE', #116, 39.37007874015748143 ) ;
#206 =( LENGTH_UNIT ( ) NAMED_UNIT ( * ) SI_UNIT ( $, .METRE. ) );
#207 = DIRECTION ( 'NONE',  ( -0.000000000000000000, 0.000000000000000000, 1.000000000000000000 ) ) ;
#208 = AXIS2_PLACEMENT_3D ( 'NONE', #229, #15, #74 ) ;
#209 = ORIENTED_EDGE ( 'NONE', *, *, #309, .F. ) ;
#210 = DIRECTION ( 'NONE',  ( -0.000000000000000000, 0.000000000000000000, 1.000000000000000000 ) ) ;
#211 = CARTESIAN_POINT ( 'NONE',  ( 0.000000000000000000, 0.000000000000000000, 2.214999999999985203 ) ) ;
#212 = VERTEX_POINT ( 'NONE', #302 ) ;
#213 = EDGE_LOOP ( 'NONE', ( #192, #122 ) ) ;
#214 = DIRECTION ( 'NONE',  ( 1.000000000000000000, 0.000000000000000000, 0.000000000000000000 ) ) ;
#215 = CARTESIAN_POINT ( 'NONE',  ( 0.000000000000000000, 0.000000000000000000, 1.875000000000000000 ) ) ;
#216 =( GEOMETRIC_REPRESENTATION_CONTEXT ( 3 ) GLOBAL_UNCERTAINTY_ASSIGNED_CONTEXT ( ( #121 ) ) GLOBAL_UNIT_ASSIGNED_CONTEXT ( ( #44, #275, #149 ) ) REPRESENTATION_CONTEXT ( 'NONE', 'WORKASPACE' ) );
#217 = DIRECTION ( 'NONE',  ( 1.000000000000000000, 0.000000000000000000, 0.000000000000000000 ) ) ;
#218 = APPLICATION_CONTEXT ( 'automotive_design' ) ;
#219 = ORIENTED_EDGE ( 'NONE', *, *, #47, .T. ) ;
#220 = AXIS2_PLACEMENT_3D ( 'NONE', #181, #115, #145 ) ;
#221 = DIRECTION ( 'NONE',  ( -0.000000000000000000, -0.000000000000000000, -1.000000000000000000 ) ) ;
#222 = ORIENTED_EDGE ( 'NONE', *, *, #272, .T. ) ;
#223 = EDGE_CURVE ( 'NONE', #16, #19, #26, .T. ) ;
#224 = AXIS2_PLACEMENT_3D ( 'NONE', #82, #62, #6 ) ;
#225 = AXIS2_PLACEMENT_3D ( 'NONE', #30, #133, #189 ) ;
#226 = FACE_OUTER_BOUND ( 'NONE', #40, .T. ) ;
#227 = EDGE_LOOP ( 'NONE', ( #260, #247 ) ) ;
#228 = DIRECTION ( 'NONE',  ( 1.000000000000000000, 0.000000000000000000, 0.000000000000000000 ) ) ;
#229 = CARTESIAN_POINT ( 'NONE',  ( 0.000000000000000000, 0.000000000000000000, 1.875000000000000000 ) ) ;
#230 = CARTESIAN_POINT ( 'NONE',  ( 0.6875000000000000000, 8.419446744138052529E-17, 0.000000000000000000 ) ) ;
#231 = EDGE_CURVE ( 'NONE', #111, #286, #127, .T. ) ;
#232 = ORIENTED_EDGE ( 'NONE', *, *, #54, .T. ) ;
#233 = CIRCLE ( 'NONE', #224, 0.6520000000000000240 ) ;
#234 = CARTESIAN_POINT ( 'NONE',  ( 0.000000000000000000, 0.000000000000000000, 2.214999999999985203 ) ) ;
#235 = DIRECTION ( 'NONE',  ( -0.000000000000000000, -0.000000000000000000, -1.000000000000000000 ) ) ;
#236 = VECTOR ( 'NONE', #31, 39.37007874015748143 ) ;
#237 = ORIENTED_EDGE ( 'NONE', *, *, #197, .T. ) ;
#238 = LINE ( 'NONE', #10, #236 ) ;
#239 = DIRECTION ( 'NONE',  ( 0.000000000000000000, -0.000000000000000000, -1.000000000000000000 ) ) ;
#240 = DIRECTION ( 'NONE',  ( -0.000000000000000000, -0.000000000000000000, -1.000000000000000000 ) ) ;
#241 = ORIENTED_EDGE ( 'NONE', *, *, #294, .T. ) ;
#242 = CIRCLE ( 'NONE', #167, 0.6875000000000000000 ) ;
#243 = LINE ( 'NONE', #119, #72 ) ;
#244 = ADVANCED_FACE ( 'NONE', ( #39, #45 ), #320, .T. ) ;
#245 = AXIS2_PLACEMENT_3D ( 'NONE', #193, #239, #315 ) ;
#246 = CARTESIAN_POINT ( 'NONE',  ( -0.6420472440944896553, 7.862811023816960857E-17, 2.375000000000000000 ) ) ;
#247 = ORIENTED_EDGE ( 'NONE', *, *, #170, .T. ) ;
#248 = VERTEX_POINT ( 'NONE', #246 ) ;
#249 = CARTESIAN_POINT ( 'NONE',  ( 0.000000000000000000, 0.000000000000000000, 2.375000000000000000 ) ) ;
#250 = AXIS2_PLACEMENT_3D ( 'NONE', #25, #95, #18 ) ;
#251 = ADVANCED_FACE ( 'NONE', ( #70 ), #268, .T. ) ;
#252 = ORIENTED_EDGE ( 'NONE', *, *, #141, .F. ) ;
#253 =( NAMED_UNIT ( * ) PLANE_ANGLE_UNIT ( ) SI_UNIT ( $, .RADIAN. ) );
#254 = EDGE_LOOP ( 'NONE', ( #114, #48 ) ) ;
#255 = ADVANCED_FACE ( 'NONE', ( #69, #59 ), #259, .T. ) ;
#256 = AXIS2_PLACEMENT_3D ( 'NONE', #100, #207, #77 ) ;
#257 = CYLINDRICAL_SURFACE ( 'NONE', #117, 0.6520000000000000240 ) ;
#258 = DIRECTION ( 'NONE',  ( 1.000000000000000000, 0.000000000000000000, 0.000000000000000000 ) ) ;
#259 = PLANE ( 'NONE',  #269 ) ;
#260 = ORIENTED_EDGE ( 'NONE', *, *, #165, .T. ) ;
#261 = CIRCLE ( 'NONE', #225, 0.6520000000000000240 ) ;
#262 = DIRECTION ( 'NONE',  ( -0.000000000000000000, -0.000000000000000000, -1.000000000000000000 ) ) ;
#263 = ADVANCED_FACE ( 'NONE', ( #285 ), #257, .T. ) ;
#264 = ORIENTED_EDGE ( 'NONE', *, *, #104, .F. ) ;
#265 = CARTESIAN_POINT ( 'NONE',  ( -0.6520000000000000240, 0.000000000000000000, 1.875000000000000000 ) ) ;
#266 = EDGE_CURVE ( 'NONE', #57, #186, #53, .T. ) ;
#267 = DIMENSIONAL_EXPONENTS ( 1.000000000000000000, 0.000000000000000000, 0.000000000000000000, 0.000000000000000000, 0.000000000000000000, 0.000000000000000000, 0.000000000000000000 ) ;
#268 = CYLINDRICAL_SURFACE ( 'NONE', #93, 0.6520000000000000240 ) ;
#269 = AXIS2_PLACEMENT_3D ( 'NONE', #215, #333, #190 ) ;
#270 = ORIENTED_EDGE ( 'NONE', *, *, #41, .F. ) ;
#271 = DIRECTION ( 'NONE',  ( -1.000000000000000000, 0.000000000000000000, 0.000000000000000000 ) ) ;
#272 = EDGE_CURVE ( 'NONE', #286, #111, #242, .T. ) ;
#273 = MANIFOLD_SOLID_BREP ( 'Chamfer1', #120 ) ;
#274 = FACE_OUTER_BOUND ( 'NONE', #73, .T. ) ;
#275 =( NAMED_UNIT ( * ) PLANE_ANGLE_UNIT ( ) SI_UNIT ( $, .RADIAN. ) );
#276 = CARTESIAN_POINT ( 'NONE',  ( 0.6220472440944883052, 7.617881663987473502E-17, 0.000000000000000000 ) ) ;
#277 = ORIENTED_EDGE ( 'NONE', *, *, #41, .T. ) ;
#278 = ORIENTED_EDGE ( 'NONE', *, *, #104, .T. ) ;
#279 = CARTESIAN_POINT ( 'NONE',  ( -0.6220472440944883052, 0.000000000000000000, 1.875000000000000000 ) ) ;
#280 = PLANE ( 'NONE',  #203 ) ;
#281 = DIRECTION ( 'NONE',  ( -1.000000000000000000, 0.000000000000000000, 0.000000000000000000 ) ) ;
#282 = VERTEX_POINT ( 'NONE', #102 ) ;
#283 = ADVANCED_FACE ( 'NONE', ( #325 ), #311, .T. ) ;
#284 = CIRCLE ( 'NONE', #191, 0.6220472440944883052 ) ;
#285 = FACE_OUTER_BOUND ( 'NONE', #51, .T. ) ;
#286 = VERTEX_POINT ( 'NONE', #177 ) ;
#287 = CARTESIAN_POINT ( 'NONE',  ( -0.6875000000000000000, 0.000000000000000000, 1.875000000000000000 ) ) ;
#288 = ORIENTED_EDGE ( 'NONE', *, *, #231, .T. ) ;
#289 = PRODUCT_DEFINITION ( 'UNKNOWN', '', #168, #91 ) ;
#290 = DIRECTION ( 'NONE',  ( 1.000000000000000000, 0.000000000000000000, 0.000000000000000000 ) ) ;
#291 = PRESENTATION_LAYER_ASSIGNMENT (  '', '', ( #71 ) ) ;
#292 = VECTOR ( 'NONE', #94, 39.37007874015748143 ) ;
#293 =( LENGTH_UNIT ( ) NAMED_UNIT ( * ) SI_UNIT ( $, .METRE. ) );
#294 = EDGE_CURVE ( 'NONE', #212, #312, #42, .T. ) ;
#295 = ORIENTED_EDGE ( 'NONE', *, *, #294, .F. ) ;
#296 = DIRECTION ( 'NONE',  ( 0.1240347345892059555, 0.000000000000000000, 0.9922778767136678502 ) ) ;
#297 = CIRCLE ( 'NONE', #157, 0.6220472440944883052 ) ;
#298 = DIRECTION ( 'NONE',  ( -1.000000000000000000, 0.000000000000000000, 0.000000000000000000 ) ) ;
#299 = DIRECTION ( 'NONE',  ( -0.000000000000000000, -0.000000000000000000, -1.000000000000000000 ) ) ;
#300 = CARTESIAN_POINT ( 'NONE',  ( 0.000000000000000000, 0.000000000000000000, 2.214999999999985203 ) ) ;
#301 =( CONVERSION_BASED_UNIT ( 'INCH', #123 ) LENGTH_UNIT ( ) NAMED_UNIT ( #143 ) );
#302 = CARTESIAN_POINT ( 'NONE',  ( 0.6220472440944883052, 7.617881663987473502E-17, 2.214999999999985203 ) ) ;
#303 = CARTESIAN_POINT ( 'NONE',  ( 0.000000000000000000, 0.000000000000000000, 2.375000000000000000 ) ) ;
#304 = DIRECTION ( 'NONE',  ( -0.000000000000000000, 0.000000000000000000, 1.000000000000000000 ) ) ;
#305 = FILL_AREA_STYLE_COLOUR ( '', #140 ) ;
#306 = ORIENTED_EDGE ( 'NONE', *, *, #165, .F. ) ;
#307 = FACE_BOUND ( 'NONE', #227, .T. ) ;
#308 = CARTESIAN_POINT ( 'NONE',  ( 0.000000000000000000, 0.000000000000000000, 1.875000000000000000 ) ) ;
#309 = EDGE_CURVE ( 'NONE', #212, #194, #23, .T. ) ;
#310 = DIRECTION ( 'NONE',  ( 1.000000000000000000, 0.000000000000000000, 0.000000000000000000 ) ) ;
#311 = CYLINDRICAL_SURFACE ( 'NONE', #164, 0.6875000000000000000 ) ;
#312 = VERTEX_POINT ( 'NONE', #276 ) ;
#313 = AXIS2_PLACEMENT_3D ( 'NONE', #211, #21, #228 ) ;
#314 = ADVANCED_FACE ( 'NONE', ( #226 ), #17, .F. ) ;
#315 = DIRECTION ( 'NONE',  ( 1.000000000000000000, 0.000000000000000000, 0.000000000000000000 ) ) ;
#316 = VECTOR ( 'NONE', #8, 39.37007874015748854 ) ;
#317 = AXIS2_PLACEMENT_3D ( 'NONE', #79, #113, #258 ) ;
#318 = EDGE_CURVE ( 'NONE', #19, #16, #124, .T. ) ;
#319 = UNCERTAINTY_MEASURE_WITH_UNIT (LENGTH_MEASURE( 1.000000000000000082E-05 ), #301, 'distance_accuracy_value', 'NONE');
#320 = PLANE ( 'NONE',  #84 ) ;
#321 = EDGE_CURVE ( 'NONE', #186, #282, #49, .T. ) ;
#322 = ORIENTED_EDGE ( 'NONE', *, *, #35, .T. ) ;
#323 = VERTEX_POINT ( 'NONE', #180 ) ;
#324 = CYLINDRICAL_SURFACE ( 'NONE', #134, 0.6875000000000000000 ) ;
#325 = FACE_OUTER_BOUND ( 'NONE', #85, .T. ) ;
#326 = CIRCLE ( 'NONE', #14, 0.6520000000000000240 ) ;
#327 = PRODUCT_CONTEXT ( 'NONE', #218, 'mechanical' ) ;
#328 = CIRCLE ( 'NONE', #96, 0.6220472440944883052 ) ;
#329 = ORIENTED_EDGE ( 'NONE', *, *, #118, .F. ) ;
#330 = DIRECTION ( 'NONE',  ( 1.000000000000000000, 0.000000000000000000, 0.000000000000000000 ) ) ;
#331 = VECTOR ( 'NONE', #46, 39.37007874015748143 ) ;
#332 = ORIENTED_EDGE ( 'NONE', *, *, #160, .F. ) ;
#333 = DIRECTION ( 'NONE',  ( -0.000000000000000000, 0.000000000000000000, 1.000000000000000000 ) ) ;
#334 = PRODUCT_DEFINITION_SHAPE ( 'NONE', 'NONE',  #289 ) ;
#335 = VERTEX_POINT ( 'NONE', #169 ) ;
ENDSEC;
END-ISO-10303-21;
