ISO-10303-21;
HEADER;
/* Generated by software containing ST-Developer
 * from STEP Tools, Inc. (www.steptools.com) 
 */

FILE_DESCRIPTION(
/* description */ (''),
/* implementation_level */ '2;1');

FILE_NAME(
/* name */ 'X:/Fusion 360/MS2040.step',
/* time_stamp */ '2016-11-11T10:37:26-08:00',
/* author */ (''),
/* organization */ (''),
/* preprocessor_version */ 'ST-DEVELOPER v16.5',
/* originating_system */ 'Autodesk Translation Framework v5.2.0.2920',
/* authorisation */ '');

FILE_SCHEMA (('AUTOMOTIVE_DESIGN { 1 0 10303 214 3 1 1 }'));
ENDSEC;

DATA;
#10=MECHANICAL_DESIGN_GEOMETRIC_PRESENTATION_REPRESENTATION('',(#13),#281);
#11=SHAPE_REPRESENTATION_RELATIONSHIP('SRR','None',#290,#12);
#12=ADVANCED_BREP_SHAPE_REPRESENTATION('',(#14),#280);
#13=STYLED_ITEM('',(#299),#14);
#14=MANIFOLD_SOLID_BREP('Body1',#145);
#15=PLANE('',#155);
#16=PLANE('',#161);
#17=PLANE('',#162);
#18=PLANE('',#163);
#19=PLANE('',#164);
#20=B_SPLINE_CURVE_WITH_KNOTS('',3,(#228,#229,#230,#231,#232,#233,#234,
#235,#236,#237,#238,#239,#240,#241,#242,#243),.UNSPECIFIED.,.F.,.F.,(4,
2,2,2,2,2,2,4),(0.292070060271125,0.390898105472262,0.586347158208393,0.781796210944524,
0.960942116683329,1.14008802242213,1.49053380724542,1.75313527567612),
 .UNSPECIFIED.);
#21=B_SPLINE_CURVE_WITH_KNOTS('',3,(#246,#247,#248,#249,#250,#251,#252,
#253,#254,#255,#256,#257,#258,#259,#260,#261),.UNSPECIFIED.,.F.,.F.,(4,
2,2,2,2,2,2,4),(5.61078309259874,5.87338456102944,6.22383034585273,6.40297625159153,
6.58212215733034,6.77757121006647,6.9730202628026,7.07184830800374),
 .UNSPECIFIED.);
#22=LINE('',#220,#28);
#23=LINE('',#224,#29);
#24=LINE('',#270,#30);
#25=LINE('',#271,#31);
#26=LINE('',#274,#32);
#27=LINE('',#276,#33);
#28=VECTOR('',#177,0.393700787401575);
#29=VECTOR('',#180,0.393700787401575);
#30=VECTOR('',#197,0.35);
#31=VECTOR('',#198,0.393700787401575);
#32=VECTOR('',#203,0.393700787401575);
#33=VECTOR('',#206,0.393700787401575);
#34=CYLINDRICAL_SURFACE('',#150,0.3125);
#35=CYLINDRICAL_SURFACE('',#159,0.125);
#36=CYLINDRICAL_SURFACE('',#160,0.35);
#37=FACE_BOUND('',#52,.T.);
#38=FACE_BOUND('',#54,.T.);
#39=FACE_BOUND('',#56,.T.);
#40=FACE_BOUND('',#59,.T.);
#41=FACE_OUTER_BOUND('',#51,.T.);
#42=FACE_OUTER_BOUND('',#53,.T.);
#43=FACE_OUTER_BOUND('',#55,.T.);
#44=FACE_OUTER_BOUND('',#57,.T.);
#45=FACE_OUTER_BOUND('',#58,.T.);
#46=FACE_OUTER_BOUND('',#60,.T.);
#47=FACE_OUTER_BOUND('',#61,.T.);
#48=FACE_OUTER_BOUND('',#62,.T.);
#49=FACE_OUTER_BOUND('',#63,.T.);
#50=FACE_OUTER_BOUND('',#64,.T.);
#51=EDGE_LOOP('',(#101));
#52=EDGE_LOOP('',(#102));
#53=EDGE_LOOP('',(#103,#104,#105,#106,#107,#108,#109,#110));
#54=EDGE_LOOP('',(#111));
#55=EDGE_LOOP('',(#112));
#56=EDGE_LOOP('',(#113));
#57=EDGE_LOOP('',(#114));
#58=EDGE_LOOP('',(#115));
#59=EDGE_LOOP('',(#116));
#60=EDGE_LOOP('',(#117,#118,#119,#120));
#61=EDGE_LOOP('',(#121,#122));
#62=EDGE_LOOP('',(#123,#124,#125,#126));
#63=EDGE_LOOP('',(#127,#128,#129,#130));
#64=EDGE_LOOP('',(#131,#132));
#65=CIRCLE('',#148,0.3125);
#66=CIRCLE('',#149,0.1725);
#67=CIRCLE('',#151,0.3125);
#68=CIRCLE('',#152,0.3125);
#69=CIRCLE('',#153,0.3125);
#70=CIRCLE('',#154,0.3125);
#71=CIRCLE('',#156,0.125);
#72=CIRCLE('',#158,0.125);
#73=VERTEX_POINT('',#211);
#74=VERTEX_POINT('',#213);
#75=VERTEX_POINT('',#216);
#76=VERTEX_POINT('',#217);
#77=VERTEX_POINT('',#219);
#78=VERTEX_POINT('',#221);
#79=VERTEX_POINT('',#223);
#80=VERTEX_POINT('',#225);
#81=VERTEX_POINT('',#227);
#82=VERTEX_POINT('',#244);
#83=VERTEX_POINT('',#263);
#84=VERTEX_POINT('',#266);
#85=EDGE_CURVE('',#73,#73,#65,.T.);
#86=EDGE_CURVE('',#74,#74,#66,.T.);
#87=EDGE_CURVE('',#75,#76,#67,.T.);
#88=EDGE_CURVE('',#76,#77,#22,.T.);
#89=EDGE_CURVE('',#77,#78,#68,.T.);
#90=EDGE_CURVE('',#78,#79,#23,.T.);
#91=EDGE_CURVE('',#79,#80,#69,.T.);
#92=EDGE_CURVE('',#80,#81,#20,.F.);
#93=EDGE_CURVE('',#81,#82,#70,.T.);
#94=EDGE_CURVE('',#75,#82,#21,.T.);
#95=EDGE_CURVE('',#83,#83,#71,.T.);
#96=EDGE_CURVE('',#84,#84,#72,.T.);
#97=EDGE_CURVE('',#82,#81,#24,.T.);
#98=EDGE_CURVE('',#75,#80,#25,.T.);
#99=EDGE_CURVE('',#79,#76,#26,.T.);
#100=EDGE_CURVE('',#78,#77,#27,.T.);
#101=ORIENTED_EDGE('',*,*,#85,.T.);
#102=ORIENTED_EDGE('',*,*,#86,.T.);
#103=ORIENTED_EDGE('',*,*,#87,.T.);
#104=ORIENTED_EDGE('',*,*,#88,.T.);
#105=ORIENTED_EDGE('',*,*,#89,.T.);
#106=ORIENTED_EDGE('',*,*,#90,.T.);
#107=ORIENTED_EDGE('',*,*,#91,.T.);
#108=ORIENTED_EDGE('',*,*,#92,.T.);
#109=ORIENTED_EDGE('',*,*,#93,.T.);
#110=ORIENTED_EDGE('',*,*,#94,.F.);
#111=ORIENTED_EDGE('',*,*,#85,.F.);
#112=ORIENTED_EDGE('',*,*,#86,.F.);
#113=ORIENTED_EDGE('',*,*,#95,.T.);
#114=ORIENTED_EDGE('',*,*,#96,.F.);
#115=ORIENTED_EDGE('',*,*,#95,.F.);
#116=ORIENTED_EDGE('',*,*,#96,.T.);
#117=ORIENTED_EDGE('',*,*,#94,.T.);
#118=ORIENTED_EDGE('',*,*,#97,.T.);
#119=ORIENTED_EDGE('',*,*,#92,.F.);
#120=ORIENTED_EDGE('',*,*,#98,.F.);
#121=ORIENTED_EDGE('',*,*,#97,.F.);
#122=ORIENTED_EDGE('',*,*,#93,.F.);
#123=ORIENTED_EDGE('',*,*,#98,.T.);
#124=ORIENTED_EDGE('',*,*,#91,.F.);
#125=ORIENTED_EDGE('',*,*,#99,.T.);
#126=ORIENTED_EDGE('',*,*,#87,.F.);
#127=ORIENTED_EDGE('',*,*,#99,.F.);
#128=ORIENTED_EDGE('',*,*,#90,.F.);
#129=ORIENTED_EDGE('',*,*,#100,.T.);
#130=ORIENTED_EDGE('',*,*,#88,.F.);
#131=ORIENTED_EDGE('',*,*,#89,.F.);
#132=ORIENTED_EDGE('',*,*,#100,.F.);
#133=CONICAL_SURFACE('',#147,0.2425,0.523598775598299);
#134=CONICAL_SURFACE('',#157,0.0625,0.785398163397448);
#135=ADVANCED_FACE('',(#41,#37),#133,.T.);
#136=ADVANCED_FACE('',(#42,#38),#34,.T.);
#137=ADVANCED_FACE('',(#43,#39),#15,.T.);
#138=ADVANCED_FACE('',(#44),#134,.F.);
#139=ADVANCED_FACE('',(#45,#40),#35,.F.);
#140=ADVANCED_FACE('',(#46),#36,.F.);
#141=ADVANCED_FACE('',(#47),#16,.T.);
#142=ADVANCED_FACE('',(#48),#17,.F.);
#143=ADVANCED_FACE('',(#49),#18,.F.);
#144=ADVANCED_FACE('',(#50),#19,.T.);
#145=CLOSED_SHELL('',(#135,#136,#137,#138,#139,#140,#141,#142,#143,#144));
#146=AXIS2_PLACEMENT_3D('placement',#209,#165,#166);
#147=AXIS2_PLACEMENT_3D('',#210,#167,#168);
#148=AXIS2_PLACEMENT_3D('',#212,#169,#170);
#149=AXIS2_PLACEMENT_3D('',#214,#171,#172);
#150=AXIS2_PLACEMENT_3D('',#215,#173,#174);
#151=AXIS2_PLACEMENT_3D('',#218,#175,#176);
#152=AXIS2_PLACEMENT_3D('',#222,#178,#179);
#153=AXIS2_PLACEMENT_3D('',#226,#181,#182);
#154=AXIS2_PLACEMENT_3D('',#245,#183,#184);
#155=AXIS2_PLACEMENT_3D('',#262,#185,#186);
#156=AXIS2_PLACEMENT_3D('',#264,#187,#188);
#157=AXIS2_PLACEMENT_3D('',#265,#189,#190);
#158=AXIS2_PLACEMENT_3D('',#267,#191,#192);
#159=AXIS2_PLACEMENT_3D('',#268,#193,#194);
#160=AXIS2_PLACEMENT_3D('',#269,#195,#196);
#161=AXIS2_PLACEMENT_3D('',#272,#199,#200);
#162=AXIS2_PLACEMENT_3D('',#273,#201,#202);
#163=AXIS2_PLACEMENT_3D('',#275,#204,#205);
#164=AXIS2_PLACEMENT_3D('',#277,#207,#208);
#165=DIRECTION('axis',(0.,0.,1.));
#166=DIRECTION('refdir',(1.,0.,0.));
#167=DIRECTION('center_axis',(0.,-1.,0.));
#168=DIRECTION('ref_axis',(1.,0.,0.));
#169=DIRECTION('center_axis',(0.,1.,0.));
#170=DIRECTION('ref_axis',(1.,0.,0.));
#171=DIRECTION('center_axis',(0.,-1.,0.));
#172=DIRECTION('ref_axis',(1.,0.,0.));
#173=DIRECTION('center_axis',(0.,1.,0.));
#174=DIRECTION('ref_axis',(1.,0.,0.));
#175=DIRECTION('center_axis',(0.,1.,0.));
#176=DIRECTION('ref_axis',(1.,0.,0.));
#177=DIRECTION('',(0.,1.,0.));
#178=DIRECTION('center_axis',(0.,1.,0.));
#179=DIRECTION('ref_axis',(1.,0.,0.));
#180=DIRECTION('',(0.,-1.,0.));
#181=DIRECTION('center_axis',(0.,1.,0.));
#182=DIRECTION('ref_axis',(1.,0.,0.));
#183=DIRECTION('center_axis',(0.,1.,0.));
#184=DIRECTION('ref_axis',(1.,0.,0.));
#185=DIRECTION('center_axis',(0.,1.,0.));
#186=DIRECTION('ref_axis',(1.,0.,0.));
#187=DIRECTION('center_axis',(0.,-1.,0.));
#188=DIRECTION('ref_axis',(0.,0.,1.));
#189=DIRECTION('center_axis',(0.,1.,0.));
#190=DIRECTION('ref_axis',(0.,0.,1.));
#191=DIRECTION('center_axis',(0.,-1.,0.));
#192=DIRECTION('ref_axis',(0.,0.,1.));
#193=DIRECTION('center_axis',(0.,-1.,0.));
#194=DIRECTION('ref_axis',(0.,0.,1.));
#195=DIRECTION('center_axis',(-1.,0.,0.));
#196=DIRECTION('ref_axis',(0.,0.0999999999999999,0.99498743710662));
#197=DIRECTION('',(1.,0.,0.));
#198=DIRECTION('',(1.,0.,0.));
#199=DIRECTION('center_axis',(0.,-1.,0.));
#200=DIRECTION('ref_axis',(1.,0.,0.));
#201=DIRECTION('center_axis',(0.,1.,0.));
#202=DIRECTION('ref_axis',(1.,0.,0.));
#203=DIRECTION('',(-1.,0.,0.));
#204=DIRECTION('center_axis',(0.,0.,-1.));
#205=DIRECTION('ref_axis',(-1.,0.,0.));
#206=DIRECTION('',(-1.,0.,0.));
#207=DIRECTION('center_axis',(0.,-1.,0.));
#208=DIRECTION('ref_axis',(1.,0.,0.));
#209=CARTESIAN_POINT('',(0.,0.,0.));
#210=CARTESIAN_POINT('Origin',(0.,0.671756443470179,0.));
#211=CARTESIAN_POINT('',(-0.3125,0.550512886940357,3.82702124733548E-17));
#212=CARTESIAN_POINT('Origin',(0.,0.550512886940357,0.));
#213=CARTESIAN_POINT('',(-0.1725,0.793,-2.11251572852918E-17));
#214=CARTESIAN_POINT('Origin',(0.,0.793,0.));
#215=CARTESIAN_POINT('Origin',(0.,0.,0.));
#216=CARTESIAN_POINT('',(-0.307164451068153,0.,0.0575000000000001));
#217=CARTESIAN_POINT('',(-0.289972412480912,0.,0.1165));
#218=CARTESIAN_POINT('Origin',(0.,0.,0.));
#219=CARTESIAN_POINT('',(-0.289972412480912,0.315,0.1165));
#220=CARTESIAN_POINT('',(-0.289972412480912,0.,0.1165));
#221=CARTESIAN_POINT('',(0.289972412480912,0.315,0.1165));
#222=CARTESIAN_POINT('Origin',(0.,0.315,0.));
#223=CARTESIAN_POINT('',(0.289972412480912,0.,0.1165));
#224=CARTESIAN_POINT('',(0.289972412480912,0.,0.1165));
#225=CARTESIAN_POINT('',(0.307164451068153,0.,0.0575000000000001));
#226=CARTESIAN_POINT('Origin',(0.,0.,0.));
#227=CARTESIAN_POINT('',(0.114556729804676,0.315,-0.290745602987317));
#228=CARTESIAN_POINT('Ctrl Pts',(0.114556729804548,0.315,-0.290745602987367));
#229=CARTESIAN_POINT('Ctrl Pts',(0.12698557252987,0.315000000000001,-0.285848512323782));
#230=CARTESIAN_POINT('Ctrl Pts',(0.139102849798957,0.31489881497003,-0.280150403877783));
#231=CARTESIAN_POINT('Ctrl Pts',(0.17386074739393,0.313966401614232,-0.261004413382595));
#232=CARTESIAN_POINT('Ctrl Pts',(0.195256236896644,0.312511711017624,-0.245357147599561));
#233=CARTESIAN_POINT('Ctrl Pts',(0.23293520632996,0.306015672544197,-0.209919787844699));
#234=CARTESIAN_POINT('Ctrl Pts',(0.249213145705198,0.300942896091618,-0.190129571218082));
#235=CARTESIAN_POINT('Ctrl Pts',(0.274688653149031,0.286384397977785,-0.150687214220315));
#236=CARTESIAN_POINT('Ctrl Pts',(0.285273867184773,0.276566319833228,-0.129464402529165));
#237=CARTESIAN_POINT('Ctrl Pts',(0.300623752890515,0.251415188068991,-0.0881338024039576));
#238=CARTESIAN_POINT('Ctrl Pts',(0.305480446852843,0.236045851127745,-0.0680823484485407));
#239=CARTESIAN_POINT('Ctrl Pts',(0.313810410920681,0.18879663281871,-0.0177991116175612));
#240=CARTESIAN_POINT('Ctrl Pts',(0.312901057825812,0.148630054760149,0.0111261224334227));
#241=CARTESIAN_POINT('Ctrl Pts',(0.30960844457733,0.0708791475477578,0.0448243286251821));
#242=CARTESIAN_POINT('Ctrl Pts',(0.307826226350615,0.0351747684266737,0.0539648027588208));
#243=CARTESIAN_POINT('Ctrl Pts',(0.307164451068153,-7.10280478352708E-17,
0.0575000000000001));
#244=CARTESIAN_POINT('',(-0.114556729804676,0.315,-0.290745602987317));
#245=CARTESIAN_POINT('Origin',(0.,0.315,0.));
#246=CARTESIAN_POINT('Ctrl Pts',(-0.307164451068153,-6.01006558606138E-17,
0.0575000000000001));
#247=CARTESIAN_POINT('Ctrl Pts',(-0.307826226350615,0.0351747684266736,
0.0539648027588208));
#248=CARTESIAN_POINT('Ctrl Pts',(-0.309608444577331,0.0708791475477577,
0.0448243286251821));
#249=CARTESIAN_POINT('Ctrl Pts',(-0.312901057825812,0.148630054760149,0.0111261224334227));
#250=CARTESIAN_POINT('Ctrl Pts',(-0.313810410920681,0.18879663281871,-0.0177991116175611));
#251=CARTESIAN_POINT('Ctrl Pts',(-0.305480446852843,0.236045851127744,-0.0680823484485407));
#252=CARTESIAN_POINT('Ctrl Pts',(-0.300623752890515,0.251415188068991,-0.0881338024039575));
#253=CARTESIAN_POINT('Ctrl Pts',(-0.285273867184773,0.276566319833228,-0.129464402529165));
#254=CARTESIAN_POINT('Ctrl Pts',(-0.274688653149031,0.286384397977785,-0.150687214220315));
#255=CARTESIAN_POINT('Ctrl Pts',(-0.249213145705198,0.300942896091618,-0.190129571218082));
#256=CARTESIAN_POINT('Ctrl Pts',(-0.23293520632996,0.306015672544197,-0.209919787844699));
#257=CARTESIAN_POINT('Ctrl Pts',(-0.195256236896644,0.312511711017624,-0.245357147599561));
#258=CARTESIAN_POINT('Ctrl Pts',(-0.17386074739393,0.313966401614232,-0.261004413382595));
#259=CARTESIAN_POINT('Ctrl Pts',(-0.139102849798957,0.31489881497003,-0.280150403877782));
#260=CARTESIAN_POINT('Ctrl Pts',(-0.12698557252987,0.315000000000001,-0.285848512323782));
#261=CARTESIAN_POINT('Ctrl Pts',(-0.114556729804549,0.315,-0.290745602987367));
#262=CARTESIAN_POINT('Origin',(0.,0.793,0.));
#263=CARTESIAN_POINT('',(0.,0.793,0.125));
#264=CARTESIAN_POINT('Origin',(0.,0.793,0.));
#265=CARTESIAN_POINT('Origin',(0.,0.3305,0.));
#266=CARTESIAN_POINT('',(0.,0.393,0.125));
#267=CARTESIAN_POINT('Origin',(0.,0.393,0.));
#268=CARTESIAN_POINT('Origin',(0.,0.593,0.));
#269=CARTESIAN_POINT('Origin',(-0.20000000638286,-0.0349999999999999,-0.290745602987317));
#270=CARTESIAN_POINT('',(-0.20000000638286,0.315,-0.290745602987317));
#271=CARTESIAN_POINT('',(-0.20000000638286,0.,0.0575000000000001));
#272=CARTESIAN_POINT('Origin',(-0.0437500063828596,0.315,-0.1275));
#273=CARTESIAN_POINT('Origin',(0.,0.,0.));
#274=CARTESIAN_POINT('',(0.144986206240456,0.,0.1165));
#275=CARTESIAN_POINT('Origin',(0.289972412480912,0.,0.1165));
#276=CARTESIAN_POINT('',(0.437235945070599,0.315,0.1165));
#277=CARTESIAN_POINT('Origin',(-4.37095678986282E-17,0.315,0.2145));
#278=UNCERTAINTY_MEASURE_WITH_UNIT(LENGTH_MEASURE(0.000393700787401575),
#283,'DISTANCE_ACCURACY_VALUE',
'Maximum model space distance between geometric entities at asserted c
onnectivities');
#279=UNCERTAINTY_MEASURE_WITH_UNIT(LENGTH_MEASURE(0.000393700787401575),
#283,'DISTANCE_ACCURACY_VALUE',
'Maximum model space distance between geometric entities at asserted c
onnectivities');
#280=(
GEOMETRIC_REPRESENTATION_CONTEXT(3)
GLOBAL_UNCERTAINTY_ASSIGNED_CONTEXT((#278))
GLOBAL_UNIT_ASSIGNED_CONTEXT((#283,#287,#286))
REPRESENTATION_CONTEXT('','3D')
);
#281=(
GEOMETRIC_REPRESENTATION_CONTEXT(3)
GLOBAL_UNCERTAINTY_ASSIGNED_CONTEXT((#279))
GLOBAL_UNIT_ASSIGNED_CONTEXT((#283,#287,#286))
REPRESENTATION_CONTEXT('','3D')
);
#282=DIMENSIONAL_EXPONENTS(1.,0.,0.,0.,0.,0.,0.);
#283=(
CONVERSION_BASED_UNIT('inch',#285)
LENGTH_UNIT()
NAMED_UNIT(#282)
);
#284=(
LENGTH_UNIT()
NAMED_UNIT(*)
SI_UNIT(.MILLI.,.METRE.)
);
#285=LENGTH_MEASURE_WITH_UNIT(LENGTH_MEASURE(25.4),#284);
#286=(
NAMED_UNIT(*)
SI_UNIT($,.STERADIAN.)
SOLID_ANGLE_UNIT()
);
#287=(
NAMED_UNIT(*)
PLANE_ANGLE_UNIT()
SI_UNIT($,.RADIAN.)
);
#288=SHAPE_DEFINITION_REPRESENTATION(#289,#290);
#289=PRODUCT_DEFINITION_SHAPE('',$,#292);
#290=SHAPE_REPRESENTATION('',(#146),#280);
#291=PRODUCT_DEFINITION_CONTEXT('part definition',#296,'design');
#292=PRODUCT_DEFINITION('MS2040 v14','MS2040 v14',#293,#291);
#293=PRODUCT_DEFINITION_FORMATION('',$,#298);
#294=PRODUCT_RELATED_PRODUCT_CATEGORY('MS2040 v14','MS2040 v14',(#298));
#295=APPLICATION_PROTOCOL_DEFINITION('international standard',
'automotive_design',2009,#296);
#296=APPLICATION_CONTEXT(
'Core Data for Automotive Mechanical Design Process');
#297=PRODUCT_CONTEXT('part definition',#296,'mechanical');
#298=PRODUCT('MS2040 v14','MS2040 v14',$,(#297));
#299=PRESENTATION_STYLE_ASSIGNMENT((#300));
#300=SURFACE_STYLE_USAGE(.BOTH.,#301);
#301=SURFACE_SIDE_STYLE('',(#302));
#302=SURFACE_STYLE_FILL_AREA(#303);
#303=FILL_AREA_STYLE('Steel - Satin',(#304));
#304=FILL_AREA_STYLE_COLOUR('Steel - Satin',#305);
#305=COLOUR_RGB('Steel - Satin',0.627450980392157,0.627450980392157,0.627450980392157);
ENDSEC;
END-ISO-10303-21;
