ISO-10303-21;
HEADER;
FILE_DESCRIPTION (( 'STEP AP203' ),
    '1' );
FILE_NAME ('MS2024.STEP',
    '2014-09-02T16:05:29',
    ( 'JeffCAD' ),
    ( 'Microsoft' ),
    'SwSTEP 2.0',
    'SolidWorks 2012',
    '' );
FILE_SCHEMA (( 'CONFIG_CONTROL_DESIGN' ));
ENDSEC;

DATA;
#1 = EDGE_LOOP ( 'NONE', ( #18 ) ) ;
#2 = ORIENTED_EDGE ( 'NONE', *, *, #364, .T. ) ;
#3 = ORIENTED_EDGE ( 'NONE', *, *, #367, .F. ) ;
#4 = ORIENTED_EDGE ( 'NONE', *, *, #360, .F. ) ;
#5 = ORIENTED_EDGE ( 'NONE', *, *, #369, .F. ) ;
#6 = ORIENTED_EDGE ( 'NONE', *, *, #367, .T. ) ;
#7 = ORIENTED_EDGE ( 'NONE', *, *, #366, .T. ) ;
#8 = ORIENTED_EDGE ( 'NONE', *, *, #369, .T. ) ;
#9 = ORIENTED_EDGE ( 'NONE', *, *, #360, .T. ) ;
#10 = FACE_OUTER_BOUND ( 'NONE', #158, .T. ) ;
#11 = ORIENTED_EDGE ( 'NONE', *, *, #361, .F. ) ;
#12 = ORIENTED_EDGE ( 'NONE', *, *, #362, .F. ) ;
#13 = ORIENTED_EDGE ( 'NONE', *, *, #373, .F. ) ;
#14 = EDGE_LOOP ( 'NONE', ( #20 ) ) ;
#15 = ORIENTED_EDGE ( 'NONE', *, *, #357, .T. ) ;
#16 = ORIENTED_EDGE ( 'NONE', *, *, #363, .F. ) ;
#17 = EDGE_LOOP ( 'NONE', ( #142 ) ) ;
#18 = ORIENTED_EDGE ( 'NONE', *, *, #361, .T. ) ;
#19 = ORIENTED_EDGE ( 'NONE', *, *, #370, .T. ) ;
#20 = ORIENTED_EDGE ( 'NONE', *, *, #358, .F. ) ;
#21 = LOCAL_TIME ( 9, 5, 29.00000000000000000, #22 ) ;
#22 = COORDINATED_UNIVERSAL_TIME_OFFSET ( 8, 0, .BEHIND. ) ;
#23 = APPROVAL_PERSON_ORGANIZATION ( #26, #92, #110 ) ;
#24 = APPROVAL_DATE_TIME ( #28, #92 ) ;
#25 = LOCAL_TIME ( 9, 5, 29.00000000000000000, #40 ) ;
#26 = PERSON_AND_ORGANIZATION ( #58, #45 ) ;
#27 = DATE_AND_TIME ( #29, #25 ) ;
#28 = DATE_AND_TIME ( #30, #21 ) ;
#29 = CALENDAR_DATE ( 2014, 2, 9 ) ;
#30 = CALENDAR_DATE ( 2014, 2, 9 ) ;
#31 = CALENDAR_DATE ( 2014, 2, 9 ) ;
#32 = DATE_AND_TIME ( #46, #36 ) ;
#33 = PERSON_AND_ORGANIZATION ( #58, #45 ) ;
#34 = COORDINATED_UNIVERSAL_TIME_OFFSET ( 8, 0, .BEHIND. ) ;
#35 = SHAPE_DEFINITION_REPRESENTATION ( #254, #61 ) ;
#36 = LOCAL_TIME ( 9, 5, 29.00000000000000000, #34 ) ;
#37 = DATE_AND_TIME ( #53, #44 ) ;
#38 = COORDINATED_UNIVERSAL_TIME_OFFSET ( 8, 0, .BEHIND. ) ;
#39 = LOCAL_TIME ( 9, 5, 29.00000000000000000, #38 ) ;
#40 = COORDINATED_UNIVERSAL_TIME_OFFSET ( 8, 0, .BEHIND. ) ;
#41 = PERSON_AND_ORGANIZATION ( #58, #45 ) ;
#42 = APPROVAL_DATE_TIME ( #37, #93 ) ;
#43 = PERSON_AND_ORGANIZATION ( #58, #45 ) ;
#44 = LOCAL_TIME ( 9, 5, 29.00000000000000000, #49 ) ;
#45 = ORGANIZATION ( 'UNSPECIFIED', 'UNSPECIFIED', '' ) ;
#46 = CALENDAR_DATE ( 2014, 2, 9 ) ;
#47 = APPROVAL_PERSON_ORGANIZATION ( #52, #93, #390 ) ;
#48 = PERSON_AND_ORGANIZATION ( #58, #45 ) ;
#49 = COORDINATED_UNIVERSAL_TIME_OFFSET ( 8, 0, .BEHIND. ) ;
#50 = APPROVAL_DATE_TIME ( #32, #91 ) ;
#51 = DATE_AND_TIME ( #31, #39 ) ;
#52 = PERSON_AND_ORGANIZATION ( #58, #45 ) ;
#53 = CALENDAR_DATE ( 2014, 2, 9 ) ;
#54 = APPROVAL_PERSON_ORGANIZATION ( #55, #91, #103 ) ;
#55 = PERSON_AND_ORGANIZATION ( #58, #45 ) ;
#56 = PERSON_AND_ORGANIZATION ( #58, #45 ) ;
#57 = PRODUCT ( 'MS2024', 'MS2024', '', ( #385 ) ) ;
#58 = PERSON ( 'UNSPECIFIED', 'UNSPECIFIED', 'UNSPECIFIED', ('UNSPECIFIED'), ('UNSPECIFIED'), ('UNSPECIFIED') ) ;
#59 = MANIFOLD_SOLID_BREP ( 'Revolve1', #155 ) ;
#60 = UNCERTAINTY_MEASURE_WITH_UNIT (LENGTH_MEASURE( 1.000000000000000100E-005 ), #378, 'distance_accuracy_value', 'NONE');
#61 = ADVANCED_BREP_SHAPE_REPRESENTATION ( 'MS2024', ( #59, #351 ), #341 ) ;
#62 = ADVANCED_FACE ( 'NONE', ( #10, #156 ), #165, .F. ) ;
#63 = ADVANCED_FACE ( 'NONE', ( #146, #137 ), #183, .F. ) ;
#64 = ADVANCED_FACE ( 'NONE', ( #172, #181 ), #242, .T. ) ;
#65 = ADVANCED_FACE ( 'NONE', ( #160, #159 ), #246, .T. ) ;
#66 = DIMENSIONAL_EXPONENTS ( 1.000000000000000000, 0.0000000000000000000, 0.0000000000000000000, 0.0000000000000000000, 0.0000000000000000000, 0.0000000000000000000, 0.0000000000000000000 ) ;
#67 = ADVANCED_FACE ( 'NONE', ( #166, #286 ), #281, .T. ) ;
#68 = ADVANCED_FACE ( 'NONE', ( #284, #280 ), #278, .T. ) ;
#69 = ADVANCED_FACE ( 'NONE', ( #282, #277 ), #114, .T. ) ;
#70 = ADVANCED_FACE ( 'NONE', ( #269, #274 ), #271, .T. ) ;
#71 = ADVANCED_FACE ( 'NONE', ( #283, #270 ), #265, .F. ) ;
#72 = ADVANCED_FACE ( 'NONE', ( #272, #279 ), #261, .T. ) ;
#73 = ADVANCED_FACE ( 'NONE', ( #266, #267 ), #262, .F. ) ;
#74 = ADVANCED_FACE ( 'NONE', ( #263, #260 ), #255, .F. ) ;
#75 = ADVANCED_FACE ( 'NONE', ( #268, #264 ), #276, .F. ) ;
#76 = ADVANCED_FACE ( 'NONE', ( #259, #256 ), #258, .F. ) ;
#77 = ADVANCED_FACE ( 'NONE', ( #275, #257 ), #287, .F. ) ;
#78 = CC_DESIGN_PERSON_AND_ORGANIZATION_ASSIGNMENT ( #48, #391, ( #81 ) ) ;
#79 = CC_DESIGN_APPROVAL ( #91, ( #80 ) ) ;
#80 = PRODUCT_DEFINITION_FORMATION_WITH_SPECIFIED_SOURCE ( 'ANY', '', #57, .NOT_KNOWN. ) ;
#81 = PRODUCT_DEFINITION ( 'UNKNOWN', '', #80, #253 ) ;
#82 = CC_DESIGN_PERSON_AND_ORGANIZATION_ASSIGNMENT ( #43, #104, ( #80 ) ) ;
#83 = CC_DESIGN_PERSON_AND_ORGANIZATION_ASSIGNMENT ( #33, #105, ( #80 ) ) ;
#84 = SECURITY_CLASSIFICATION ( '', '', #106 ) ;
#85 = PRODUCT_RELATED_PRODUCT_CATEGORY ( 'detail', '', ( #57 ) ) ;
#86 = CC_DESIGN_SECURITY_CLASSIFICATION ( #84, ( #80 ) ) ;
#87 = CC_DESIGN_DATE_AND_TIME_ASSIGNMENT ( #51, #392, ( #81 ) ) ;
#88 = CC_DESIGN_APPROVAL ( #92, ( #84 ) ) ;
#89 = CC_DESIGN_DATE_AND_TIME_ASSIGNMENT ( #27, #108, ( #84 ) ) ;
#90 = CC_DESIGN_PERSON_AND_ORGANIZATION_ASSIGNMENT ( #41, #107, ( #84 ) ) ;
#91 = APPROVAL ( #102, 'UNSPECIFIED' ) ;
#92 = APPROVAL ( #109, 'UNSPECIFIED' ) ;
#93 = APPROVAL ( #389, 'UNSPECIFIED' ) ;
#94 = CC_DESIGN_APPROVAL ( #93, ( #81 ) ) ;
#95 = DIRECTION ( 'NONE',  ( 0.0000000000000000000, 0.0000000000000000000, -1.000000000000000000 ) ) ;
#96 = CARTESIAN_POINT ( 'NONE',  ( -8.554270842741226800, 0.0000000000000000000, 0.0000000000000000000 ) ) ;
#97 = DIRECTION ( 'NONE',  ( 0.0000000000000000000, 0.0000000000000000000, -1.000000000000000000 ) ) ;
#98 = DIRECTION ( 'NONE',  ( 1.000000000000000000, -0.0000000000000000000, -0.0000000000000000000 ) ) ;
#99 = DIRECTION ( 'NONE',  ( 0.0000000000000000000, 0.0000000000000000000, -1.000000000000000000 ) ) ;
#100 = CARTESIAN_POINT ( 'NONE',  ( 0.0000000000000000000, 0.0000000000000000000, 0.0000000000000000000 ) ) ;
#101 = DIRECTION ( 'NONE',  ( 1.000000000000000000, -0.0000000000000000000, -0.0000000000000000000 ) ) ;
#102 = APPROVAL_STATUS ( 'not_yet_approved' ) ;
#103 = APPROVAL_ROLE ( '' ) ;
#104 = PERSON_AND_ORGANIZATION_ROLE ( 'creator' ) ;
#105 = PERSON_AND_ORGANIZATION_ROLE ( 'design_supplier' ) ;
#106 = SECURITY_CLASSIFICATION_LEVEL ( 'unclassified' ) ;
#107 = PERSON_AND_ORGANIZATION_ROLE ( 'classification_officer' ) ;
#108 = DATE_TIME_ROLE ( 'classification_date' ) ;
#109 = APPROVAL_STATUS ( 'not_yet_approved' ) ;
#110 = APPROVAL_ROLE ( '' ) ;
#111 = DIRECTION ( 'NONE',  ( 0.0000000000000000000, 0.0000000000000000000, -1.000000000000000000 ) ) ;
#112 = DIRECTION ( 'NONE',  ( 0.0000000000000000000, 0.0000000000000000000, -1.000000000000000000 ) ) ;
#113 = DIRECTION ( 'NONE',  ( 1.000000000000000000, -0.0000000000000000000, -0.0000000000000000000 ) ) ;
#114 = PLANE ( 'NONE',  #346 ) ;
#115 = DIRECTION ( 'NONE',  ( 0.0000000000000000000, 0.0000000000000000000, -1.000000000000000000 ) ) ;
#116 = CARTESIAN_POINT ( 'NONE',  ( -4.368144351434131000E-015, -0.4999511442733011200, 0.0000000000000000000 ) ) ;
#117 = DIRECTION ( 'NONE',  ( 1.000000000000000000, 0.0000000000000000000, -0.0000000000000000000 ) ) ;
#118 = DIRECTION ( 'NONE',  ( -0.0000000000000000000, 0.0000000000000000000, -1.000000000000000000 ) ) ;
#119 = CARTESIAN_POINT ( 'NONE',  ( 0.0000000000000000000, 0.0000000000000000000, 0.0000000000000000000 ) ) ;
#120 = CARTESIAN_POINT ( 'NONE',  ( -11.00000000000006900, 0.0000000000000000000, 0.0000000000000000000 ) ) ;
#121 = DIRECTION ( 'NONE',  ( -1.000000000000000000, 0.0000000000000000000, 0.0000000000000000000 ) ) ;
#122 = DIRECTION ( 'NONE',  ( 0.0000000000000000000, 0.0000000000000000000, 1.000000000000000000 ) ) ;
#123 = DIRECTION ( 'NONE',  ( 0.0000000000000000000, 0.0000000000000000000, 1.000000000000000000 ) ) ;
#124 = CARTESIAN_POINT ( 'NONE',  ( -6.965840243020241300, 0.0000000000000000000, 0.0000000000000000000 ) ) ;
#125 = DIRECTION ( 'NONE',  ( -1.000000000000000000, 0.0000000000000000000, 0.0000000000000000000 ) ) ;
#126 = CARTESIAN_POINT ( 'NONE',  ( 0.0000000000000000000, 0.0000000000000000000, 0.0000000000000000000 ) ) ;
#127 = DIRECTION ( 'NONE',  ( 1.000000000000000000, -0.0000000000000000000, -0.0000000000000000000 ) ) ;
#128 = DIRECTION ( 'NONE',  ( 0.0000000000000000000, 0.0000000000000000000, -1.000000000000000000 ) ) ;
#129 = CARTESIAN_POINT ( 'NONE',  ( -8.488222444096898300, 0.0000000000000000000, 0.0000000000000000000 ) ) ;
#130 = DIRECTION ( 'NONE',  ( -1.000000000000000000, 0.0000000000000000000, 0.0000000000000000000 ) ) ;
#131 = DIRECTION ( 'NONE',  ( 1.000000000000000000, -0.0000000000000000000, -0.0000000000000000000 ) ) ;
#132 = DIRECTION ( 'NONE',  ( 0.0000000000000000000, 0.0000000000000000000, 1.000000000000000000 ) ) ;
#133 = CARTESIAN_POINT ( 'NONE',  ( -9.702999086355268000, 0.0000000000000000000, 0.0000000000000000000 ) ) ;
#134 = EDGE_LOOP ( 'NONE', ( #4 ) ) ;
#135 = EDGE_LOOP ( 'NONE', ( #19 ) ) ;
#136 = EDGE_LOOP ( 'NONE', ( #174 ) ) ;
#137 = FACE_OUTER_BOUND ( 'NONE', #179, .T. ) ;
#138 = EDGE_LOOP ( 'NONE', ( #152 ) ) ;
#139 = ORIENTED_EDGE ( 'NONE', *, *, #374, .F. ) ;
#140 = EDGE_LOOP ( 'NONE', ( #15 ) ) ;
#141 = EDGE_LOOP ( 'NONE', ( #178 ) ) ;
#142 = ORIENTED_EDGE ( 'NONE', *, *, #358, .T. ) ;
#143 = EDGE_LOOP ( 'NONE', ( #180 ) ) ;
#144 = EDGE_LOOP ( 'NONE', ( #182 ) ) ;
#145 = EDGE_LOOP ( 'NONE', ( #3 ) ) ;
#146 = FACE_OUTER_BOUND ( 'NONE', #138, .T. ) ;
#147 = EDGE_LOOP ( 'NONE', ( #11 ) ) ;
#148 = EDGE_LOOP ( 'NONE', ( #168 ) ) ;
#149 = EDGE_LOOP ( 'NONE', ( #2 ) ) ;
#150 = EDGE_LOOP ( 'NONE', ( #184 ) ) ;
#151 = EDGE_LOOP ( 'NONE', ( #162 ) ) ;
#152 = ORIENTED_EDGE ( 'NONE', *, *, #373, .T. ) ;
#153 = EDGE_LOOP ( 'NONE', ( #12 ) ) ;
#154 = EDGE_LOOP ( 'NONE', ( #16 ) ) ;
#155 = CLOSED_SHELL ( 'NONE', ( #75, #73, #76, #74, #77, #69, #70, #63, #72, #67, #62, #64, #68, #65, #71 ) ) ;
#156 = FACE_OUTER_BOUND ( 'NONE', #145, .T. ) ;
#157 = ORIENTED_EDGE ( 'NONE', *, *, #371, .F. ) ;
#158 = EDGE_LOOP ( 'NONE', ( #7 ) ) ;
#159 = FACE_OUTER_BOUND ( 'NONE', #167, .T. ) ;
#160 = FACE_BOUND ( 'NONE', #173, .T. ) ;
#161 = ORIENTED_EDGE ( 'NONE', *, *, #368, .F. ) ;
#162 = ORIENTED_EDGE ( 'NONE', *, *, #363, .T. ) ;
#163 = EDGE_LOOP ( 'NONE', ( #9 ) ) ;
#164 = ORIENTED_EDGE ( 'NONE', *, *, #371, .T. ) ;
#165 = TOROIDAL_SURFACE ( 'NONE', #340, 0.6894511442733013400, 0.03100000000000876700 ) ;
#166 = FACE_OUTER_BOUND ( 'NONE', #185, .T. ) ;
#167 = EDGE_LOOP ( 'NONE', ( #161 ) ) ;
#168 = ORIENTED_EDGE ( 'NONE', *, *, #364, .F. ) ;
#169 = EDGE_LOOP ( 'NONE', ( #13 ) ) ;
#170 = EDGE_LOOP ( 'NONE', ( #176 ) ) ;
#171 = EDGE_LOOP ( 'NONE', ( #5 ) ) ;
#172 = FACE_OUTER_BOUND ( 'NONE', #149, .T. ) ;
#173 = EDGE_LOOP ( 'NONE', ( #164 ) ) ;
#174 = ORIENTED_EDGE ( 'NONE', *, *, #368, .T. ) ;
#175 = EDGE_LOOP ( 'NONE', ( #8 ) ) ;
#176 = ORIENTED_EDGE ( 'NONE', *, *, #362, .T. ) ;
#177 = EDGE_LOOP ( 'NONE', ( #157 ) ) ;
#178 = ORIENTED_EDGE ( 'NONE', *, *, #370, .F. ) ;
#179 = EDGE_LOOP ( 'NONE', ( #139 ) ) ;
#180 = ORIENTED_EDGE ( 'NONE', *, *, #366, .F. ) ;
#181 = FACE_BOUND ( 'NONE', #143, .T. ) ;
#182 = ORIENTED_EDGE ( 'NONE', *, *, #374, .T. ) ;
#183 = TOROIDAL_SURFACE ( 'NONE', #345, 3.562451144273314900, 3.000000000000004400 ) ;
#184 = ORIENTED_EDGE ( 'NONE', *, *, #357, .F. ) ;
#185 = EDGE_LOOP ( 'NONE', ( #6 ) ) ;
#186 = DIRECTION ( 'NONE',  ( 1.000000000000000000, -0.0000000000000000000, -0.0000000000000000000 ) ) ;
#187 = DIRECTION ( 'NONE',  ( 0.0000000000000000000, 0.0000000000000000000, -1.000000000000000000 ) ) ;
#188 = CARTESIAN_POINT ( 'NONE',  ( -8.488222444096898300, 0.0000000000000000000, -0.5327239909874097500 ) ) ;
#189 = CARTESIAN_POINT ( 'NONE',  ( -6.811320721088361700, 0.0000000000000000000, 0.0000000000000000000 ) ) ;
#190 = DIRECTION ( 'NONE',  ( 1.000000000000000000, -0.0000000000000000000, -0.0000000000000000000 ) ) ;
#191 = DIRECTION ( 'NONE',  ( 0.0000000000000000000, 0.0000000000000000000, -1.000000000000000000 ) ) ;
#192 = CARTESIAN_POINT ( 'NONE',  ( -8.554270842741226800, 0.0000000000000000000, -0.5334511442733064200 ) ) ;
#193 = CARTESIAN_POINT ( 'NONE',  ( -9.682367545449880100, 0.0000000000000000000, -0.6627605687961891600 ) ) ;
#194 = CARTESIAN_POINT ( 'NONE',  ( -9.210791269995997500, 0.0000000000000000000, -0.5334511442733038700 ) ) ;
#195 = CARTESIAN_POINT ( 'NONE',  ( -9.000000000000001800, 0.0000000000000000000, -0.7499511442732905700 ) ) ;
#196 = CARTESIAN_POINT ( 'NONE',  ( -9.000000000000005300, 0.0000000000000000000, -0.6894511442732906800 ) ) ;
#197 = CARTESIAN_POINT ( 'NONE',  ( -8.969000000000001200, 0.0000000000000000000, -0.6584511442732923200 ) ) ;
#198 = CARTESIAN_POINT ( 'NONE',  ( -11.00000000000006900, 0.0000000000000000000, -0.7499511442732859100 ) ) ;
#199 = CARTESIAN_POINT ( 'NONE',  ( -8.750000000000003600, 0.0000000000000000000, -0.6584511442732923200 ) ) ;
#200 = CARTESIAN_POINT ( 'NONE',  ( -6.999999999999968000, 0.0000000000000000000, -0.4999511442733016700 ) ) ;
#201 = CARTESIAN_POINT ( 'NONE',  ( -11.00000000000006900, 0.0000000000000000000, -0.6899511442731793800 ) ) ;
#202 = CARTESIAN_POINT ( 'NONE',  ( -6.965840243020241300, 0.0000000000000000000, -0.5664331674677729500 ) ) ;
#203 = CARTESIAN_POINT ( 'NONE',  ( -6.811320721088361700, 0.0000000000000000000, -0.5624511442733101100 ) ) ;
#204 = CARTESIAN_POINT ( 'NONE',  ( 0.0000000000000000000, 0.0000000000000000000, 0.0000000000000000000 ) ) ;
#205 = CARTESIAN_POINT ( 'NONE',  ( -4.370956789862821100E-015, 0.0000000000000000000, 0.0000000000000000000 ) ) ;
#206 = DIRECTION ( 'NONE',  ( 1.000000000000000000, -0.0000000000000000000, -0.0000000000000000000 ) ) ;
#207 = DIRECTION ( 'NONE',  ( 0.0000000000000000000, 0.0000000000000000000, -1.000000000000000000 ) ) ;
#208 = CARTESIAN_POINT ( 'NONE',  ( -4.365331913005440100E-015, 0.0000000000000000000, 0.0000000000000000000 ) ) ;
#209 = DIRECTION ( 'NONE',  ( 1.000000000000000000, -0.0000000000000000000, -0.0000000000000000000 ) ) ;
#210 = DIRECTION ( 'NONE',  ( 0.0000000000000000000, 0.0000000000000000000, -1.000000000000000000 ) ) ;
#211 = CARTESIAN_POINT ( 'NONE',  ( -4.370956789862821100E-015, 0.0000000000000000000, -0.4999511442733011200 ) ) ;
#212 = CARTESIAN_POINT ( 'NONE',  ( -8.750000000000003600, 0.0000000000000000000, 0.0000000000000000000 ) ) ;
#213 = DIRECTION ( 'NONE',  ( 1.000000000000000000, -0.0000000000000000000, -0.0000000000000000000 ) ) ;
#214 = DIRECTION ( 'NONE',  ( 0.0000000000000000000, 0.0000000000000000000, -1.000000000000000000 ) ) ;
#215 = CARTESIAN_POINT ( 'NONE',  ( -6.999999999999968000, 0.0000000000000000000, 0.0000000000000000000 ) ) ;
#216 = DIRECTION ( 'NONE',  ( 1.000000000000000000, -0.0000000000000000000, -0.0000000000000000000 ) ) ;
#217 = DIRECTION ( 'NONE',  ( 0.0000000000000000000, 0.0000000000000000000, -1.000000000000000000 ) ) ;
#218 = CARTESIAN_POINT ( 'NONE',  ( -4.365331913005440100E-015, 0.0000000000000000000, -0.5624511442733102200 ) ) ;
#219 = CARTESIAN_POINT ( 'NONE',  ( -11.00000000000006900, 0.0000000000000000000, 0.0000000000000000000 ) ) ;
#220 = DIRECTION ( 'NONE',  ( 1.000000000000000000, -0.0000000000000000000, -0.0000000000000000000 ) ) ;
#221 = DIRECTION ( 'NONE',  ( 0.0000000000000000000, 0.0000000000000000000, -1.000000000000000000 ) ) ;
#222 = CARTESIAN_POINT ( 'NONE',  ( -6.965840243020241300, 0.0000000000000000000, 0.0000000000000000000 ) ) ;
#223 = CARTESIAN_POINT ( 'NONE',  ( -8.968999999999997600, 0.0000000000000000000, 0.0000000000000000000 ) ) ;
#224 = DIRECTION ( 'NONE',  ( 1.000000000000000000, -0.0000000000000000000, -0.0000000000000000000 ) ) ;
#225 = DIRECTION ( 'NONE',  ( 1.000000000000000000, -0.0000000000000000000, -0.0000000000000000000 ) ) ;
#226 = DIRECTION ( 'NONE',  ( 0.0000000000000000000, 0.0000000000000000000, -1.000000000000000000 ) ) ;
#227 = CARTESIAN_POINT ( 'NONE',  ( -9.000000000000001800, 0.0000000000000000000, 0.0000000000000000000 ) ) ;
#228 = DIRECTION ( 'NONE',  ( 1.000000000000000000, -0.0000000000000000000, -0.0000000000000000000 ) ) ;
#229 = DIRECTION ( 'NONE',  ( 0.0000000000000000000, 0.0000000000000000000, -1.000000000000000000 ) ) ;
#230 = CARTESIAN_POINT ( 'NONE',  ( -9.000000000000005300, 0.0000000000000000000, 0.0000000000000000000 ) ) ;
#231 = DIRECTION ( 'NONE',  ( 1.000000000000000000, -0.0000000000000000000, -0.0000000000000000000 ) ) ;
#232 = DIRECTION ( 'NONE',  ( 0.0000000000000000000, 0.0000000000000000000, -1.000000000000000000 ) ) ;
#233 = CARTESIAN_POINT ( 'NONE',  ( -8.969000000000001200, 0.0000000000000000000, 0.0000000000000000000 ) ) ;
#234 = DIRECTION ( 'NONE',  ( 1.000000000000000000, -0.0000000000000000000, -0.0000000000000000000 ) ) ;
#235 = DIRECTION ( 'NONE',  ( 0.0000000000000000000, 0.0000000000000000000, -1.000000000000000000 ) ) ;
#236 = CARTESIAN_POINT ( 'NONE',  ( -11.00000000000006900, 0.0000000000000000000, 0.0000000000000000000 ) ) ;
#237 = CARTESIAN_POINT ( 'NONE',  ( -6.811320721088361700, 0.0000000000000000000, 0.0000000000000000000 ) ) ;
#238 = CARTESIAN_POINT ( 'NONE',  ( -9.000000000000003600, -0.6894511442732906800, 0.0000000000000000000 ) ) ;
#239 = DIRECTION ( 'NONE',  ( 1.000000000000000000, -0.0000000000000000000, -0.0000000000000000000 ) ) ;
#240 = DIRECTION ( 'NONE',  ( 0.0000000000000000000, 0.0000000000000000000, -1.000000000000000000 ) ) ;
#241 = CARTESIAN_POINT ( 'NONE',  ( 0.0000000000000000000, 0.0000000000000000000, 0.0000000000000000000 ) ) ;
#242 = PLANE ( 'NONE',  #347 ) ;
#243 = DIRECTION ( 'NONE',  ( 1.000000000000000000, 0.0000000000000000000, -0.0000000000000000000 ) ) ;
#244 = DIRECTION ( 'NONE',  ( -0.0000000000000000000, 0.0000000000000000000, -1.000000000000000000 ) ) ;
#245 = DIRECTION ( 'NONE',  ( 1.000000000000000000, -0.0000000000000000000, -0.0000000000000000000 ) ) ;
#246 = PLANE ( 'NONE',  #356 ) ;
#247 = CARTESIAN_POINT ( 'NONE',  ( -11.00000000000006900, -0.6899511442731793800, 0.0000000000000000000 ) ) ;
#248 = DIRECTION ( 'NONE',  ( -1.000000000000000000, 0.0000000000000000000, 0.0000000000000000000 ) ) ;
#249 = DIRECTION ( 'NONE',  ( 0.0000000000000000000, 0.0000000000000000000, 1.000000000000000000 ) ) ;
#250 = CARTESIAN_POINT ( 'NONE',  ( 0.0000000000000000000, 0.0000000000000000000, 0.0000000000000000000 ) ) ;
#251 = DIRECTION ( 'NONE',  ( 1.000000000000000000, -0.0000000000000000000, -0.0000000000000000000 ) ) ;
#252 = DIRECTION ( 'NONE',  ( 0.0000000000000000000, 0.0000000000000000000, -1.000000000000000000 ) ) ;
#253 = DESIGN_CONTEXT ( 'detailed design', #387, 'design' ) ;
#254 = PRODUCT_DEFINITION_SHAPE ( 'NONE', 'NONE',  #81 ) ;
#255 = CONICAL_SURFACE ( 'NONE', #355, 0.5327239909874097500, 0.02201791184318344800 ) ;
#256 = FACE_OUTER_BOUND ( 'NONE', #147, .T. ) ;
#257 = FACE_OUTER_BOUND ( 'NONE', #141, .T. ) ;
#258 = TOROIDAL_SURFACE ( 'NONE', #336, -2.466548855726692100, 2.999999999999998700 ) ;
#259 = FACE_OUTER_BOUND ( 'NONE', #163, .T. ) ;
#260 = FACE_OUTER_BOUND ( 'NONE', #134, .T. ) ;
#261 = CONICAL_SURFACE ( 'NONE', #344, 0.5664331674677729500, 0.05152930831772389200 ) ;
#262 = CYLINDRICAL_SURFACE ( 'NONE', #354, 0.5334511442733050900 ) ;
#263 = FACE_BOUND ( 'NONE', #135, .T. ) ;
#264 = FACE_OUTER_BOUND ( 'NONE', #153, .T. ) ;
#265 = CONICAL_SURFACE ( 'NONE', #375, 0.6899511442731793800, 0.02063300485776505300 ) ;
#266 = FACE_OUTER_BOUND ( 'NONE', #1, .T. ) ;
#267 = FACE_OUTER_BOUND ( 'NONE', #154, .T. ) ;
#268 = FACE_OUTER_BOUND ( 'NONE', #151, .T. ) ;
#269 = FACE_OUTER_BOUND ( 'NONE', #144, .T. ) ;
#270 = FACE_OUTER_BOUND ( 'NONE', #177, .T. ) ;
#271 = CYLINDRICAL_SURFACE ( 'NONE', #350, 0.5624511442733101100 ) ;
#272 = FACE_OUTER_BOUND ( 'NONE', #175, .T. ) ;
#273 = CIRCLE ( 'NONE', #335, 0.4999511442733011200 ) ;
#274 = FACE_OUTER_BOUND ( 'NONE', #14, .T. ) ;
#275 = FACE_OUTER_BOUND ( 'NONE', #140, .T. ) ;
#276 = TOROIDAL_SURFACE ( 'NONE', #333, -0.3370265783104376400, 0.9999999999998691000 ) ;
#277 = FACE_BOUND ( 'NONE', #150, .T. ) ;
#278 = CYLINDRICAL_SURFACE ( 'NONE', #376, 0.7499511442732882400 ) ;
#279 = FACE_BOUND ( 'NONE', #169, .T. ) ;
#280 = FACE_OUTER_BOUND ( 'NONE', #148, .T. ) ;
#281 = CYLINDRICAL_SURFACE ( 'NONE', #372, 0.6584511442732923200 ) ;
#282 = FACE_OUTER_BOUND ( 'NONE', #17, .T. ) ;
#283 = FACE_BOUND ( 'NONE', #170, .T. ) ;
#284 = FACE_OUTER_BOUND ( 'NONE', #136, .T. ) ;
#285 = VERTEX_POINT ( 'NONE', #188 ) ;
#286 = FACE_OUTER_BOUND ( 'NONE', #171, .T. ) ;
#287 = CYLINDRICAL_SURFACE ( 'NONE', #332, 0.4999511442733014000 ) ;
#288 = DIRECTION ( 'NONE',  ( 1.000000000000000000, -0.0000000000000000000, -0.0000000000000000000 ) ) ;
#289 = DIRECTION ( 'NONE',  ( 0.0000000000000000000, 0.0000000000000000000, -1.000000000000000000 ) ) ;
#290 = CARTESIAN_POINT ( 'NONE',  ( -8.488222444096898300, 0.0000000000000000000, 0.0000000000000000000 ) ) ;
#291 = DIRECTION ( 'NONE',  ( 1.000000000000000000, -0.0000000000000000000, -0.0000000000000000000 ) ) ;
#292 = DIRECTION ( 'NONE',  ( 0.0000000000000000000, 0.0000000000000000000, -1.000000000000000000 ) ) ;
#293 = CARTESIAN_POINT ( 'NONE',  ( -8.554270842741226800, 0.0000000000000000000, 0.0000000000000000000 ) ) ;
#294 = DIRECTION ( 'NONE',  ( 1.000000000000000000, -0.0000000000000000000, -0.0000000000000000000 ) ) ;
#295 = DIRECTION ( 'NONE',  ( 0.0000000000000000000, 0.0000000000000000000, -1.000000000000000000 ) ) ;
#296 = CARTESIAN_POINT ( 'NONE',  ( -9.682367545449880100, 0.0000000000000000000, 0.0000000000000000000 ) ) ;
#297 = DIRECTION ( 'NONE',  ( 1.000000000000000000, -0.0000000000000000000, -0.0000000000000000000 ) ) ;
#298 = DIRECTION ( 'NONE',  ( 0.0000000000000000000, 0.0000000000000000000, -1.000000000000000000 ) ) ;
#299 = CARTESIAN_POINT ( 'NONE',  ( -9.210791269995997500, 0.0000000000000000000, 0.0000000000000000000 ) ) ;
#300 = VERTEX_POINT ( 'NONE', #192 ) ;
#301 = VERTEX_POINT ( 'NONE', #218 ) ;
#302 = CIRCLE ( 'NONE', #342, 0.5624511442733101100 ) ;
#303 = CIRCLE ( 'NONE', #343, 0.5664331674677729500 ) ;
#304 = CIRCLE ( 'NONE', #331, 0.6899511442731793800 ) ;
#305 = CIRCLE ( 'NONE', #348, 0.4999511442733016700 ) ;
#306 = CIRCLE ( 'NONE', #339, 0.6584511442732923200 ) ;
#307 = VERTEX_POINT ( 'NONE', #200 ) ;
#308 = CIRCLE ( 'NONE', #365, 0.7499511442732859100 ) ;
#309 = CIRCLE ( 'NONE', #338, 0.6584511442732923200 ) ;
#310 = CIRCLE ( 'NONE', #353, 0.5334511442733038700 ) ;
#311 = CIRCLE ( 'NONE', #359, 0.5624511442733102200 ) ;
#312 = CIRCLE ( 'NONE', #349, 0.5327239909874097500 ) ;
#313 = CIRCLE ( 'NONE', #352, 0.5334511442733064200 ) ;
#314 = VERTEX_POINT ( 'NONE', #211 ) ;
#315 = CIRCLE ( 'NONE', #329, 0.6894511442732906800 ) ;
#316 = CIRCLE ( 'NONE', #330, 0.6627605687961891600 ) ;
#317 = CIRCLE ( 'NONE', #337, 0.7499511442732905700 ) ;
#318 = LENGTH_MEASURE_WITH_UNIT ( LENGTH_MEASURE( 0.02539999999999999900 ), #377 );
#319 = VERTEX_POINT ( 'NONE', #201 ) ;
#320 = VERTEX_POINT ( 'NONE', #202 ) ;
#321 = VERTEX_POINT ( 'NONE', #203 ) ;
#322 = VERTEX_POINT ( 'NONE', #199 ) ;
#323 = VERTEX_POINT ( 'NONE', #198 ) ;
#324 = VERTEX_POINT ( 'NONE', #197 ) ;
#325 = VERTEX_POINT ( 'NONE', #196 ) ;
#326 = VERTEX_POINT ( 'NONE', #195 ) ;
#327 = VERTEX_POINT ( 'NONE', #194 ) ;
#328 = VERTEX_POINT ( 'NONE', #193 ) ;
#329 = AXIS2_PLACEMENT_3D ( 'NONE', #230, #231, #232 ) ;
#330 = AXIS2_PLACEMENT_3D ( 'NONE', #296, #297, #298 ) ;
#331 = AXIS2_PLACEMENT_3D ( 'NONE', #219, #220, #221 ) ;
#332 = AXIS2_PLACEMENT_3D ( 'NONE', #100, #101, #97 ) ;
#333 = AXIS2_PLACEMENT_3D ( 'NONE', #133, #131, #95 ) ;
#334 = CC_DESIGN_PERSON_AND_ORGANIZATION_ASSIGNMENT ( #56, #386, ( #57 ) ) ;
#335 = AXIS2_PLACEMENT_3D ( 'NONE', #205, #206, #207 ) ;
#336 = AXIS2_PLACEMENT_3D ( 'NONE', #96, #98, #99 ) ;
#337 = AXIS2_PLACEMENT_3D ( 'NONE', #227, #228, #229 ) ;
#338 = AXIS2_PLACEMENT_3D ( 'NONE', #233, #234, #235 ) ;
#339 = AXIS2_PLACEMENT_3D ( 'NONE', #212, #213, #214 ) ;
#340 = AXIS2_PLACEMENT_3D ( 'NONE', #223, #224, #111 ) ;
#341 =( GEOMETRIC_REPRESENTATION_CONTEXT ( 3 ) GLOBAL_UNCERTAINTY_ASSIGNED_CONTEXT ( ( #60 ) ) GLOBAL_UNIT_ASSIGNED_CONTEXT ( ( #378, #379, #380 ) ) REPRESENTATION_CONTEXT ( 'NONE', 'WORKASPACE' ) );
#342 = AXIS2_PLACEMENT_3D ( 'NONE', #189, #190, #191 ) ;
#343 = AXIS2_PLACEMENT_3D ( 'NONE', #222, #186, #187 ) ;
#344 = AXIS2_PLACEMENT_3D ( 'NONE', #124, #125, #122 ) ;
#345 = AXIS2_PLACEMENT_3D ( 'NONE', #237, #239, #240 ) ;
#346 = AXIS2_PLACEMENT_3D ( 'NONE', #116, #117, #118 ) ;
#347 = AXIS2_PLACEMENT_3D ( 'NONE', #238, #243, #244 ) ;
#348 = AXIS2_PLACEMENT_3D ( 'NONE', #215, #216, #217 ) ;
#349 = AXIS2_PLACEMENT_3D ( 'NONE', #290, #291, #292 ) ;
#350 = AXIS2_PLACEMENT_3D ( 'NONE', #119, #113, #115 ) ;
#351 = AXIS2_PLACEMENT_3D ( 'NONE', #204, #383, #384 ) ;
#352 = AXIS2_PLACEMENT_3D ( 'NONE', #293, #294, #295 ) ;
#353 = AXIS2_PLACEMENT_3D ( 'NONE', #299, #225, #226 ) ;
#354 = AXIS2_PLACEMENT_3D ( 'NONE', #126, #127, #128 ) ;
#355 = AXIS2_PLACEMENT_3D ( 'NONE', #129, #130, #132 ) ;
#356 = AXIS2_PLACEMENT_3D ( 'NONE', #247, #248, #249 ) ;
#357 = EDGE_CURVE ( 'NONE', #314, #314, #273, .T. ) ;
#358 = EDGE_CURVE ( 'NONE', #301, #301, #311, .T. ) ;
#359 = AXIS2_PLACEMENT_3D ( 'NONE', #208, #288, #289 ) ;
#360 = EDGE_CURVE ( 'NONE', #285, #285, #312, .T. ) ;
#361 = EDGE_CURVE ( 'NONE', #300, #300, #313, .T. ) ;
#362 = EDGE_CURVE ( 'NONE', #328, #328, #316, .T. ) ;
#363 = EDGE_CURVE ( 'NONE', #327, #327, #310, .T. ) ;
#364 = EDGE_CURVE ( 'NONE', #326, #326, #317, .T. ) ;
#365 = AXIS2_PLACEMENT_3D ( 'NONE', #236, #209, #210 ) ;
#366 = EDGE_CURVE ( 'NONE', #325, #325, #315, .T. ) ;
#367 = EDGE_CURVE ( 'NONE', #324, #324, #309, .T. ) ;
#368 = EDGE_CURVE ( 'NONE', #323, #323, #308, .T. ) ;
#369 = EDGE_CURVE ( 'NONE', #322, #322, #306, .T. ) ;
#370 = EDGE_CURVE ( 'NONE', #307, #307, #305, .T. ) ;
#371 = EDGE_CURVE ( 'NONE', #319, #319, #304, .T. ) ;
#372 = AXIS2_PLACEMENT_3D ( 'NONE', #250, #245, #252 ) ;
#373 = EDGE_CURVE ( 'NONE', #320, #320, #303, .T. ) ;
#374 = EDGE_CURVE ( 'NONE', #321, #321, #302, .T. ) ;
#375 = AXIS2_PLACEMENT_3D ( 'NONE', #120, #121, #123 ) ;
#376 = AXIS2_PLACEMENT_3D ( 'NONE', #241, #251, #112 ) ;
#377 =( LENGTH_UNIT ( ) NAMED_UNIT ( * ) SI_UNIT ( $, .METRE. ) );
#378 =( CONVERSION_BASED_UNIT ( 'INCH', #318 ) LENGTH_UNIT ( ) NAMED_UNIT ( #66 ) );
#379 =( NAMED_UNIT ( * ) PLANE_ANGLE_UNIT ( ) SI_UNIT ( $, .RADIAN. ) );
#380 =( NAMED_UNIT ( * ) SI_UNIT ( $, .STERADIAN. ) SOLID_ANGLE_UNIT ( ) );
#381 = APPLICATION_PROTOCOL_DEFINITION ( 'international standard', 'config_control_design', 1994, #382 ) ;
#382 = APPLICATION_CONTEXT ( 'configuration controlled 3d designs of mechanical parts and assemblies' ) ;
#383 = DIRECTION ( 'NONE',  ( 0.0000000000000000000, 0.0000000000000000000, 1.000000000000000000 ) ) ;
#384 = DIRECTION ( 'NONE',  ( 1.000000000000000000, 0.0000000000000000000, 0.0000000000000000000 ) ) ;
#385 = MECHANICAL_CONTEXT ( 'NONE', #382, 'mechanical' ) ;
#386 = PERSON_AND_ORGANIZATION_ROLE ( 'design_owner' ) ;
#387 = APPLICATION_CONTEXT ( 'configuration controlled 3d designs of mechanical parts and assemblies' ) ;
#388 = APPLICATION_PROTOCOL_DEFINITION ( 'international standard', 'config_control_design', 1994, #387 ) ;
#389 = APPROVAL_STATUS ( 'not_yet_approved' ) ;
#390 = APPROVAL_ROLE ( '' ) ;
#391 = PERSON_AND_ORGANIZATION_ROLE ( 'creator' ) ;
#392 = DATE_TIME_ROLE ( 'creation_date' ) ;
ENDSEC;
END-ISO-10303-21;
