ISO-10303-21;
HEADER;
FILE_DESCRIPTION (( 'STEP AP203' ),
    '1' );
FILE_NAME ('MS2019.STEP',
    '2025-05-08T17:38:20',
    ( '' ),
    ( '' ),
    'SwSTEP 2.0',
    'SolidWorks 2023',
    '' );
FILE_SCHEMA (( 'CONFIG_CONTROL_DESIGN' ));
ENDSEC;

DATA;
#1 = ORIENTED_EDGE ( 'NONE', *, *, #359, .T. ) ;
#2 = DIRECTION ( 'NONE',  ( 1.000000000000000000, 0.000000000000000000, 0.000000000000000000 ) ) ;
#3 = SECURITY_CLASSIFICATION ( '', '', #312 ) ;
#4 = ORIENTED_EDGE ( 'NONE', *, *, #9, .T. ) ;
#5 = EDGE_LOOP ( 'NONE', ( #31, #177, #347, #130 ) ) ;
#6 = DIRECTION ( 'NONE',  ( 1.000000000000000000, 0.000000000000000000, 0.000000000000000000 ) ) ;
#7 = AXIS2_PLACEMENT_3D ( 'NONE', #232, #178, #123 ) ;
#8 = ORIENTED_EDGE ( 'NONE', *, *, #262, .T. ) ;
#9 = EDGE_CURVE ( 'NONE', #121, #180, #41, .T. ) ;
#10 = EDGE_LOOP ( 'NONE', ( #152, #226, #233, #213 ) ) ;
#11 = CARTESIAN_POINT ( 'NONE',  ( -0.6082677165354329896, 0.000000000000000000, 2.214999999999991864 ) ) ;
#12 = ORIENTED_EDGE ( 'NONE', *, *, #369, .T. ) ;
#13 = DATE_AND_TIME ( #73, #288 ) ;
#14 = CARTESIAN_POINT ( 'NONE',  ( 0.000000000000000000, 0.000000000000000000, 1.875000000000000000 ) ) ;
#15 = LOCAL_TIME ( 10, 38, 20.00000000000000000, #82 ) ;
#16 = CALENDAR_DATE ( 2025, 8, 5 ) ;
#17 = APPROVAL_STATUS ( 'not_yet_approved' ) ;
#18 = ADVANCED_FACE ( 'NONE', ( #81 ), #252, .F. ) ;
#19 = AXIS2_PLACEMENT_3D ( 'NONE', #313, #125, #230 ) ;
#20 = PRODUCT_DEFINITION_FORMATION_WITH_SPECIFIED_SOURCE ( 'ANY', '', #250, .NOT_KNOWN. ) ;
#21 = EDGE_CURVE ( 'NONE', #361, #240, #211, .T. ) ;
#22 = DIRECTION ( 'NONE',  ( -0.000000000000000000, 0.000000000000000000, 1.000000000000000000 ) ) ;
#23 = ORIENTED_EDGE ( 'NONE', *, *, #100, .F. ) ;
#24 = CARTESIAN_POINT ( 'NONE',  ( -0.6082677165354329896, 0.000000000000000000, 1.875000000000000000 ) ) ;
#25 = EDGE_LOOP ( 'NONE', ( #295, #349, #109, #297 ) ) ;
#26 = CYLINDRICAL_SURFACE ( 'NONE', #304, 0.6875000000000000000 ) ;
#27 = CARTESIAN_POINT ( 'NONE',  ( -0.6875000000000000000, 0.000000000000000000, 0.000000000000000000 ) ) ;
#28 = DIRECTION ( 'NONE',  ( 1.000000000000000000, 0.000000000000000000, 0.000000000000000000 ) ) ;
#29 = CIRCLE ( 'NONE', #382, 0.6082677165354329896 ) ;
#30 = ORIENTED_EDGE ( 'NONE', *, *, #337, .T. ) ;
#31 = ORIENTED_EDGE ( 'NONE', *, *, #359, .F. ) ;
#32 = FACE_OUTER_BOUND ( 'NONE', #308, .T. ) ;
#33 = ADVANCED_FACE ( 'NONE', ( #269, #75 ), #329, .F. ) ;
#34 = LINE ( 'NONE', #78, #267 ) ;
#35 = PERSON_AND_ORGANIZATION ( #374, #154 ) ;
#36 = VECTOR ( 'NONE', #196, 39.37007874015748854 ) ;
#37 = VERTEX_POINT ( 'NONE', #310 ) ;
#38 = CARTESIAN_POINT ( 'NONE',  ( 0.000000000000000000, 0.000000000000000000, 2.375000000000000000 ) ) ;
#39 = DIRECTION ( 'NONE',  ( 1.000000000000000000, 0.000000000000000000, 0.000000000000000000 ) ) ;
#40 = DIRECTION ( 'NONE',  ( 1.000000000000000000, 0.000000000000000000, 0.000000000000000000 ) ) ;
#41 = CIRCLE ( 'NONE', #363, 0.6082677165354329896 ) ;
#42 = DIRECTION ( 'NONE',  ( -0.000000000000000000, 0.000000000000000000, 1.000000000000000000 ) ) ;
#43 = DIMENSIONAL_EXPONENTS ( 1.000000000000000000, 0.000000000000000000, 0.000000000000000000, 0.000000000000000000, 0.000000000000000000, 0.000000000000000000, 0.000000000000000000 ) ;
#44 = COORDINATED_UNIVERSAL_TIME_OFFSET ( 8, 0, .BEHIND. ) ;
#45 = CARTESIAN_POINT ( 'NONE',  ( 0.000000000000000000, 0.000000000000000000, 0.000000000000000000 ) ) ;
#46 = CARTESIAN_POINT ( 'NONE',  ( 0.000000000000000000, 0.000000000000000000, 0.000000000000000000 ) ) ;
#47 = CC_DESIGN_DATE_AND_TIME_ASSIGNMENT ( #51, #341, ( #67 ) ) ;
#48 = DIRECTION ( 'NONE',  ( -0.000000000000000000, 0.000000000000000000, 1.000000000000000000 ) ) ;
#49 = AXIS2_PLACEMENT_3D ( 'NONE', #336, #189, #40 ) ;
#50 = DIRECTION ( 'NONE',  ( -1.000000000000000000, 0.000000000000000000, 0.000000000000000000 ) ) ;
#51 = DATE_AND_TIME ( #16, #126 ) ;
#52 = DIRECTION ( 'NONE',  ( 1.000000000000000000, 0.000000000000000000, 0.000000000000000000 ) ) ;
#53 = CARTESIAN_POINT ( 'NONE',  ( 0.000000000000000000, 0.000000000000000000, 1.875000000000000000 ) ) ;
#54 = ADVANCED_FACE ( 'NONE', ( #279 ), #372, .F. ) ;
#55 = LOCAL_TIME ( 10, 38, 20.00000000000000000, #44 ) ;
#56 = DIRECTION ( 'NONE',  ( -0.000000000000000000, -0.000000000000000000, -1.000000000000000000 ) ) ;
#57 = DIRECTION ( 'NONE',  ( 1.000000000000000000, 0.000000000000000000, 0.000000000000000000 ) ) ;
#58 = CARTESIAN_POINT ( 'NONE',  ( 0.000000000000000000, 0.000000000000000000, 2.375000000000000000 ) ) ;
#59 = AXIS2_PLACEMENT_3D ( 'NONE', #293, #351, #296 ) ;
#60 = ORIENTED_EDGE ( 'NONE', *, *, #94, .T. ) ;
#61 = DIRECTION ( 'NONE',  ( -0.000000000000000000, 0.000000000000000000, 1.000000000000000000 ) ) ;
#62 = CARTESIAN_POINT ( 'NONE',  ( 0.000000000000000000, 0.000000000000000000, 2.375000000000000000 ) ) ;
#63 = CARTESIAN_POINT ( 'NONE',  ( 0.000000000000000000, 0.000000000000000000, 2.214999999999991864 ) ) ;
#64 = ADVANCED_FACE ( 'NONE', ( #249 ), #370, .T. ) ;
#65 = LINE ( 'NONE', #251, #228 ) ;
#66 = ORIENTED_EDGE ( 'NONE', *, *, #137, .T. ) ;
#67 = PRODUCT_DEFINITION ( 'UNKNOWN', '', #20, #105 ) ;
#68 = ORIENTED_EDGE ( 'NONE', *, *, #120, .F. ) ;
#69 = CC_DESIGN_APPROVAL ( #256, ( #67 ) ) ;
#70 = PERSON_AND_ORGANIZATION_ROLE ( 'design_owner' ) ;
#71 = AXIS2_PLACEMENT_3D ( 'NONE', #129, #352, #2 ) ;
#72 = ORIENTED_EDGE ( 'NONE', *, *, #369, .F. ) ;
#73 = CALENDAR_DATE ( 2025, 8, 5 ) ;
#74 = VECTOR ( 'NONE', #56, 39.37007874015748143 ) ;
#75 = FACE_BOUND ( 'NONE', #334, .T. ) ;
#76 = APPLICATION_PROTOCOL_DEFINITION ( 'international standard', 'config_control_design', 1994, #168 ) ;
#77 = APPROVAL_PERSON_ORGANIZATION ( #35, #256, #239 ) ;
#78 = CARTESIAN_POINT ( 'NONE',  ( 0.6875000000000000000, 8.419446744138052529E-17, 1.875000000000000000 ) ) ;
#79 = CIRCLE ( 'NONE', #112, 0.6082677165354329896 ) ;
#80 = CC_DESIGN_PERSON_AND_ORGANIZATION_ASSIGNMENT ( #307, #222, ( #67 ) ) ;
#81 = FACE_OUTER_BOUND ( 'NONE', #5, .T. ) ;
#82 = COORDINATED_UNIVERSAL_TIME_OFFSET ( 8, 0, .BEHIND. ) ;
#83 = PERSON_AND_ORGANIZATION ( #374, #154 ) ;
#84 = AXIS2_PLACEMENT_3D ( 'NONE', #38, #241, #39 ) ;
#85 = CARTESIAN_POINT ( 'NONE',  ( 0.000000000000000000, 0.000000000000000000, 2.375000000000000000 ) ) ;
#86 = DATE_AND_TIME ( #371, #15 ) ;
#87 = CARTESIAN_POINT ( 'NONE',  ( -0.6520000000000000240, 0.000000000000000000, 2.375000000000000000 ) ) ;
#88 = CARTESIAN_POINT ( 'NONE',  ( 0.000000000000000000, 0.000000000000000000, 1.875000000000000000 ) ) ;
#89 = VERTEX_POINT ( 'NONE', #87 ) ;
#90 = LINE ( 'NONE', #172, #36 ) ;
#91 = DIRECTION ( 'NONE',  ( -0.000000000000000000, 0.000000000000000000, 1.000000000000000000 ) ) ;
#92 = AXIS2_PLACEMENT_3D ( 'NONE', #212, #330, #360 ) ;
#93 = CIRCLE ( 'NONE', #350, 0.6382677165354337934 ) ;
#94 = EDGE_CURVE ( 'NONE', #209, #89, #114, .T. ) ;
#95 = CARTESIAN_POINT ( 'NONE',  ( -0.6382677165354337934, 7.816525160542092408E-17, 2.375000000000000000 ) ) ;
#96 = CARTESIAN_POINT ( 'NONE',  ( -0.6082677165354329896, 0.000000000000000000, 0.000000000000000000 ) ) ;
#97 = DIRECTION ( 'NONE',  ( 1.000000000000000000, 0.000000000000000000, 0.000000000000000000 ) ) ;
#98 = ORIENTED_EDGE ( 'NONE', *, *, #100, .T. ) ;
#99 = EDGE_LOOP ( 'NONE', ( #23, #326 ) ) ;
#100 = EDGE_CURVE ( 'NONE', #103, #266, #367, .T. ) ;
#101 = VECTOR ( 'NONE', #354, 39.37007874015748143 ) ;
#102 = ORIENTED_EDGE ( 'NONE', *, *, #275, .F. ) ;
#103 = VERTEX_POINT ( 'NONE', #27 ) ;
#104 = FACE_OUTER_BOUND ( 'NONE', #380, .T. ) ;
#105 = DESIGN_CONTEXT ( 'detailed design', #327, 'design' ) ;
#106 = COORDINATED_UNIVERSAL_TIME_OFFSET ( 8, 0, .BEHIND. ) ;
#107 = CIRCLE ( 'NONE', #149, 0.6875000000000000000 ) ;
#108 = CC_DESIGN_PERSON_AND_ORGANIZATION_ASSIGNMENT ( #110, #344, ( #20 ) ) ;
#109 = ORIENTED_EDGE ( 'NONE', *, *, #120, .T. ) ;
#110 = PERSON_AND_ORGANIZATION ( #374, #154 ) ;
#111 = EDGE_CURVE ( 'NONE', #253, #128, #90, .T. ) ;
#112 = AXIS2_PLACEMENT_3D ( 'NONE', #274, #299, #6 ) ;
#113 = DATE_AND_TIME ( #165, #198 ) ;
#114 = CIRCLE ( 'NONE', #158, 0.6520000000000000240 ) ;
#115 = DIRECTION ( 'NONE',  ( 0.000000000000000000, -0.000000000000000000, -1.000000000000000000 ) ) ;
#116 = APPROVAL_DATE_TIME ( #113, #141 ) ;
#117 = DIRECTION ( 'NONE',  ( -0.000000000000000000, -0.000000000000000000, -1.000000000000000000 ) ) ;
#118 = EDGE_LOOP ( 'NONE', ( #325, #72, #150, #98 ) ) ;
#119 = LINE ( 'NONE', #291, #74 ) ;
#120 = EDGE_CURVE ( 'NONE', #89, #361, #285, .T. ) ;
#121 = VERTEX_POINT ( 'NONE', #96 ) ;
#122 = DIRECTION ( 'NONE',  ( 1.000000000000000000, 0.000000000000000000, 0.000000000000000000 ) ) ;
#123 = DIRECTION ( 'NONE',  ( -1.000000000000000000, 0.000000000000000000, 0.000000000000000000 ) ) ;
#124 = AXIS2_PLACEMENT_3D ( 'NONE', #58, #173, #284 ) ;
#125 = DIRECTION ( 'NONE',  ( 0.000000000000000000, -0.000000000000000000, -1.000000000000000000 ) ) ;
#126 = LOCAL_TIME ( 10, 38, 20.00000000000000000, #193 ) ;
#127 = CC_DESIGN_PERSON_AND_ORGANIZATION_ASSIGNMENT ( #340, #167, ( #3 ) ) ;
#128 = VERTEX_POINT ( 'NONE', #206 ) ;
#129 = CARTESIAN_POINT ( 'NONE',  ( 0.000000000000000000, 0.000000000000000000, 2.214999999999991864 ) ) ;
#130 = ORIENTED_EDGE ( 'NONE', *, *, #111, .F. ) ;
#131 = CARTESIAN_POINT ( 'NONE',  ( -0.6520000000000000240, 0.000000000000000000, 1.875000000000000000 ) ) ;
#132 = ORIENTED_EDGE ( 'NONE', *, *, #318, .T. ) ;
#133 = ORIENTED_EDGE ( 'NONE', *, *, #21, .T. ) ;
#134 = EDGE_LOOP ( 'NONE', ( #133, #203 ) ) ;
#135 = LENGTH_MEASURE_WITH_UNIT ( LENGTH_MEASURE( 0.02539999999999999897 ), #268 );
#136 =( GEOMETRIC_REPRESENTATION_CONTEXT ( 3 ) GLOBAL_UNCERTAINTY_ASSIGNED_CONTEXT ( ( #238 ) ) GLOBAL_UNIT_ASSIGNED_CONTEXT ( ( #235, #273, #364 ) ) REPRESENTATION_CONTEXT ( 'NONE', 'WORKASPACE' ) );
#137 = EDGE_CURVE ( 'NONE', #292, #128, #93, .T. ) ;
#138 = EDGE_LOOP ( 'NONE', ( #231, #216, #353, #68 ) ) ;
#139 = PERSON_AND_ORGANIZATION ( #374, #154 ) ;
#140 = EDGE_CURVE ( 'NONE', #240, #361, #187, .T. ) ;
#141 = APPROVAL ( #17, 'UNSPECIFIED' ) ;
#142 = APPROVAL_STATUS ( 'not_yet_approved' ) ;
#143 = AXIS2_PLACEMENT_3D ( 'NONE', #356, #362, #335 ) ;
#144 = PRODUCT_DEFINITION_SHAPE ( 'NONE', 'NONE',  #67 ) ;
#145 = DIRECTION ( 'NONE',  ( -0.000000000000000000, 0.000000000000000000, 1.000000000000000000 ) ) ;
#146 = EDGE_CURVE ( 'NONE', #37, #103, #65, .T. ) ;
#147 = CARTESIAN_POINT ( 'NONE',  ( 0.000000000000000000, 0.000000000000000000, 1.875000000000000000 ) ) ;
#148 = CARTESIAN_POINT ( 'NONE',  ( 0.000000000000000000, 0.000000000000000000, 1.875000000000000000 ) ) ;
#149 = AXIS2_PLACEMENT_3D ( 'NONE', #215, #191, #333 ) ;
#150 = ORIENTED_EDGE ( 'NONE', *, *, #146, .T. ) ;
#151 = CLOSED_SHELL ( 'NONE', ( #18, #64, #229, #184, #54, #287, #302, #33, #365, #219, #294 ) ) ;
#152 = ORIENTED_EDGE ( 'NONE', *, *, #171, .F. ) ;
#153 = ORIENTED_EDGE ( 'NONE', *, *, #223, .F. ) ;
#154 = ORGANIZATION ( 'UNSPECIFIED', 'UNSPECIFIED', '' ) ;
#155 = ADVANCED_BREP_SHAPE_REPRESENTATION ( 'MS2019', ( #342, #143 ), #136 ) ;
#156 = ORIENTED_EDGE ( 'NONE', *, *, #223, .T. ) ;
#157 = LINE ( 'NONE', #375, #192 ) ;
#158 = AXIS2_PLACEMENT_3D ( 'NONE', #85, #22, #176 ) ;
#159 = CYLINDRICAL_SURFACE ( 'NONE', #246, 0.6520000000000000240 ) ;
#160 = APPROVAL ( #142, 'UNSPECIFIED' ) ;
#161 = ORIENTED_EDGE ( 'NONE', *, *, #199, .T. ) ;
#162 = FACE_OUTER_BOUND ( 'NONE', #25, .T. ) ;
#163 = DIRECTION ( 'NONE',  ( -0.000000000000000000, -0.000000000000000000, -1.000000000000000000 ) ) ;
#164 = EDGE_CURVE ( 'NONE', #209, #240, #119, .T. ) ;
#165 = CALENDAR_DATE ( 2025, 8, 5 ) ;
#166 = DIRECTION ( 'NONE',  ( 0.000000000000000000, 0.000000000000000000, 1.000000000000000000 ) ) ;
#167 = PERSON_AND_ORGANIZATION_ROLE ( 'classification_officer' ) ;
#168 = APPLICATION_CONTEXT ( 'configuration controlled 3d designs of mechanical parts and assemblies' ) ;
#169 = CC_DESIGN_APPROVAL ( #160, ( #20 ) ) ;
#170 = EDGE_LOOP ( 'NONE', ( #205, #66 ) ) ;
#171 = EDGE_CURVE ( 'NONE', #378, #292, #201, .T. ) ;
#172 = CARTESIAN_POINT ( 'NONE',  ( 0.6082677165354329896, 0.000000000000000000, 2.214999999999991864 ) ) ;
#173 = DIRECTION ( 'NONE',  ( 0.000000000000000000, -0.000000000000000000, -1.000000000000000000 ) ) ;
#174 = DIRECTION ( 'NONE',  ( 1.000000000000000000, 0.000000000000000000, 0.000000000000000000 ) ) ;
#175 = FACE_OUTER_BOUND ( 'NONE', #214, .T. ) ;
#176 = DIRECTION ( 'NONE',  ( 1.000000000000000000, 0.000000000000000000, 0.000000000000000000 ) ) ;
#177 = ORIENTED_EDGE ( 'NONE', *, *, #171, .T. ) ;
#178 = DIRECTION ( 'NONE',  ( -0.000000000000000000, -0.000000000000000000, -1.000000000000000000 ) ) ;
#179 = ORIENTED_EDGE ( 'NONE', *, *, #9, .F. ) ;
#180 = VERTEX_POINT ( 'NONE', #322 ) ;
#181 = CARTESIAN_POINT ( 'NONE',  ( 0.6875000000000000000, 8.419446744138052529E-17, 1.875000000000000000 ) ) ;
#182 = ORIENTED_EDGE ( 'NONE', *, *, #146, .F. ) ;
#183 = DIRECTION ( 'NONE',  ( -1.000000000000000000, 0.000000000000000000, 0.000000000000000000 ) ) ;
#184 = ADVANCED_FACE ( 'NONE', ( #175 ), #328, .F. ) ;
#185 = APPLICATION_PROTOCOL_DEFINITION ( 'international standard', 'config_control_design', 1994, #327 ) ;
#186 = AXIS2_PLACEMENT_3D ( 'NONE', #88, #316, #290 ) ;
#187 = CIRCLE ( 'NONE', #19, 0.6520000000000000240 ) ;
#188 = ORIENTED_EDGE ( 'NONE', *, *, #199, .F. ) ;
#189 = DIRECTION ( 'NONE',  ( -0.000000000000000000, 0.000000000000000000, 1.000000000000000000 ) ) ;
#190 = PERSON_AND_ORGANIZATION ( #374, #154 ) ;
#191 = DIRECTION ( 'NONE',  ( -0.000000000000000000, 0.000000000000000000, 1.000000000000000000 ) ) ;
#192 = VECTOR ( 'NONE', #117, 39.37007874015748143 ) ;
#193 = COORDINATED_UNIVERSAL_TIME_OFFSET ( 8, 0, .BEHIND. ) ;
#194 = EDGE_CURVE ( 'NONE', #253, #378, #311, .T. ) ;
#195 = CALENDAR_DATE ( 2025, 8, 5 ) ;
#196 = DIRECTION ( 'NONE',  ( 0.1842885350501808905, 0.000000000000000000, 0.9828721869343227668 ) ) ;
#197 = PERSON_AND_ORGANIZATION ( #374, #154 ) ;
#198 = LOCAL_TIME ( 10, 38, 20.00000000000000000, #314 ) ;
#199 = EDGE_CURVE ( 'NONE', #378, #121, #260, .T. ) ;
#200 = CARTESIAN_POINT ( 'NONE',  ( 0.6520000000000000240, 7.984697130440741254E-17, 1.875000000000000000 ) ) ;
#201 = LINE ( 'NONE', #204, #278 ) ;
#202 = CARTESIAN_POINT ( 'NONE',  ( 0.6875000000000000000, 8.419446744138052529E-17, 0.000000000000000000 ) ) ;
#203 = ORIENTED_EDGE ( 'NONE', *, *, #140, .T. ) ;
#204 = CARTESIAN_POINT ( 'NONE',  ( -0.6082677165354329896, 7.449131120797877398E-17, 2.214999999999991864 ) ) ;
#205 = ORIENTED_EDGE ( 'NONE', *, *, #245, .T. ) ;
#206 = CARTESIAN_POINT ( 'NONE',  ( 0.6382677165354337934, 0.000000000000000000, 2.375000000000000000 ) ) ;
#207 = FACE_BOUND ( 'NONE', #170, .T. ) ;
#208 = VERTEX_POINT ( 'NONE', #181 ) ;
#209 = VERTEX_POINT ( 'NONE', #379 ) ;
#210 = PLANE ( 'NONE',  #59 ) ;
#211 = CIRCLE ( 'NONE', #357, 0.6520000000000000240 ) ;
#212 = CARTESIAN_POINT ( 'NONE',  ( 0.000000000000000000, 0.000000000000000000, 1.875000000000000000 ) ) ;
#213 = ORIENTED_EDGE ( 'NONE', *, *, #137, .F. ) ;
#214 = EDGE_LOOP ( 'NONE', ( #1, #156, #179, #188 ) ) ;
#215 = CARTESIAN_POINT ( 'NONE',  ( 0.000000000000000000, 0.000000000000000000, 0.000000000000000000 ) ) ;
#216 = ORIENTED_EDGE ( 'NONE', *, *, #164, .T. ) ;
#217 = CC_DESIGN_SECURITY_CLASSIFICATION ( #3, ( #20 ) ) ;
#218 = DIRECTION ( 'NONE',  ( 1.000000000000000000, 0.000000000000000000, 0.000000000000000000 ) ) ;
#219 = ADVANCED_FACE ( 'NONE', ( #207, #32 ), #210, .T. ) ;
#220 = APPROVAL_ROLE ( '' ) ;
#221 = CARTESIAN_POINT ( 'NONE',  ( 0.000000000000000000, 0.000000000000000000, 2.375000000000000000 ) ) ;
#222 = PERSON_AND_ORGANIZATION_ROLE ( 'creator' ) ;
#223 = EDGE_CURVE ( 'NONE', #253, #180, #157, .T. ) ;
#224 = FACE_OUTER_BOUND ( 'NONE', #355, .T. ) ;
#225 = APPROVAL_PERSON_ORGANIZATION ( #197, #141, #366 ) ;
#226 = ORIENTED_EDGE ( 'NONE', *, *, #194, .F. ) ;
#227 = ORIENTED_EDGE ( 'NONE', *, *, #346, .T. ) ;
#228 = VECTOR ( 'NONE', #283, 39.37007874015748143 ) ;
#229 = ADVANCED_FACE ( 'NONE', ( #224 ), #345, .T. ) ;
#230 = DIRECTION ( 'NONE',  ( 1.000000000000000000, 0.000000000000000000, 0.000000000000000000 ) ) ;
#231 = ORIENTED_EDGE ( 'NONE', *, *, #94, .F. ) ;
#232 = CARTESIAN_POINT ( 'NONE',  ( 0.000000000000000000, 0.000000000000000000, 1.875000000000000000 ) ) ;
#233 = ORIENTED_EDGE ( 'NONE', *, *, #111, .T. ) ;
#234 = AXIS2_PLACEMENT_3D ( 'NONE', #63, #258, #97 ) ;
#235 =( CONVERSION_BASED_UNIT ( 'INCH', #135 ) LENGTH_UNIT ( ) NAMED_UNIT ( #43 ) );
#236 = CC_DESIGN_DATE_AND_TIME_ASSIGNMENT ( #86, #276, ( #3 ) ) ;
#237 = CC_DESIGN_APPROVAL ( #141, ( #3 ) ) ;
#238 = UNCERTAINTY_MEASURE_WITH_UNIT (LENGTH_MEASURE( 1.000000000000000082E-05 ), #235, 'distance_accuracy_value', 'NONE');
#239 = APPROVAL_ROLE ( '' ) ;
#240 = VERTEX_POINT ( 'NONE', #200 ) ;
#241 = DIRECTION ( 'NONE',  ( -0.000000000000000000, 0.000000000000000000, 1.000000000000000000 ) ) ;
#242 = CONICAL_SURFACE ( 'NONE', #234, 0.6082677165354329896, 0.1853479499956902088 ) ;
#243 = DIRECTION ( 'NONE',  ( -0.000000000000000000, -0.000000000000000000, -1.000000000000000000 ) ) ;
#244 = APPROVAL_DATE_TIME ( #13, #256 ) ;
#245 = EDGE_CURVE ( 'NONE', #128, #292, #298, .T. ) ;
#246 = AXIS2_PLACEMENT_3D ( 'NONE', #264, #358, #183 ) ;
#247 = VECTOR ( 'NONE', #289, 39.37007874015748143 ) ;
#248 = DATE_AND_TIME ( #195, #55 ) ;
#249 = FACE_OUTER_BOUND ( 'NONE', #138, .T. ) ;
#250 = PRODUCT ( 'MS2019', 'MS2019', '', ( #332 ) ) ;
#251 = CARTESIAN_POINT ( 'NONE',  ( -0.6875000000000000000, 0.000000000000000000, 1.875000000000000000 ) ) ;
#252 = CONICAL_SURFACE ( 'NONE', #305, 0.6082677165354329896, 0.1853479499956902088 ) ;
#253 = VERTEX_POINT ( 'NONE', #348 ) ;
#254 = DIRECTION ( 'NONE',  ( -0.000000000000000000, -0.000000000000000000, -1.000000000000000000 ) ) ;
#255 = DIRECTION ( 'NONE',  ( -0.000000000000000000, -0.000000000000000000, -1.000000000000000000 ) ) ;
#256 = APPROVAL ( #271, 'UNSPECIFIED' ) ;
#257 = CIRCLE ( 'NONE', #84, 0.6520000000000000240 ) ;
#258 = DIRECTION ( 'NONE',  ( 0.000000000000000000, 0.000000000000000000, 1.000000000000000000 ) ) ;
#259 = ORIENTED_EDGE ( 'NONE', *, *, #262, .F. ) ;
#260 = LINE ( 'NONE', #24, #101 ) ;
#261 = APPROVAL_PERSON_ORGANIZATION ( #83, #160, #220 ) ;
#262 = EDGE_CURVE ( 'NONE', #208, #37, #338, .T. ) ;
#263 = ORIENTED_EDGE ( 'NONE', *, *, #275, .T. ) ;
#264 = CARTESIAN_POINT ( 'NONE',  ( 0.000000000000000000, 0.000000000000000000, 2.375000000000000000 ) ) ;
#265 = PRODUCT_RELATED_PRODUCT_CATEGORY ( 'detail', '', ( #250 ) ) ;
#266 = VERTEX_POINT ( 'NONE', #202 ) ;
#267 = VECTOR ( 'NONE', #163, 39.37007874015748143 ) ;
#268 =( LENGTH_UNIT ( ) NAMED_UNIT ( * ) SI_UNIT ( $, .METRE. ) );
#269 = FACE_OUTER_BOUND ( 'NONE', #99, .T. ) ;
#270 = AXIS2_PLACEMENT_3D ( 'NONE', #14, #243, #50 ) ;
#271 = APPROVAL_STATUS ( 'not_yet_approved' ) ;
#272 = EDGE_LOOP ( 'NONE', ( #153, #331, #161, #102 ) ) ;
#273 =( NAMED_UNIT ( * ) PLANE_ANGLE_UNIT ( ) SI_UNIT ( $, .RADIAN. ) );
#274 = CARTESIAN_POINT ( 'NONE',  ( 0.000000000000000000, 0.000000000000000000, 2.214999999999991864 ) ) ;
#275 = EDGE_CURVE ( 'NONE', #180, #121, #29, .T. ) ;
#276 = DATE_TIME_ROLE ( 'classification_date' ) ;
#277 = DIRECTION ( 'NONE',  ( 1.000000000000000000, 0.000000000000000000, 0.000000000000000000 ) ) ;
#278 = VECTOR ( 'NONE', #319, 39.37007874015748854 ) ;
#279 = FACE_OUTER_BOUND ( 'NONE', #272, .T. ) ;
#280 = SHAPE_DEFINITION_REPRESENTATION ( #144, #155 ) ;
#281 = DIRECTION ( 'NONE',  ( 1.000000000000000000, 0.000000000000000000, 0.000000000000000000 ) ) ;
#282 = AXIS2_PLACEMENT_3D ( 'NONE', #147, #91, #28 ) ;
#283 = DIRECTION ( 'NONE',  ( -0.000000000000000000, -0.000000000000000000, -1.000000000000000000 ) ) ;
#284 = DIRECTION ( 'NONE',  ( 1.000000000000000000, 0.000000000000000000, 0.000000000000000000 ) ) ;
#285 = LINE ( 'NONE', #377, #247 ) ;
#286 = FACE_OUTER_BOUND ( 'NONE', #118, .T. ) ;
#287 = ADVANCED_FACE ( 'NONE', ( #286 ), #26, .T. ) ;
#288 = LOCAL_TIME ( 10, 38, 20.00000000000000000, #106 ) ;
#289 = DIRECTION ( 'NONE',  ( -0.000000000000000000, -0.000000000000000000, -1.000000000000000000 ) ) ;
#290 = DIRECTION ( 'NONE',  ( -1.000000000000000000, 0.000000000000000000, 0.000000000000000000 ) ) ;
#291 = CARTESIAN_POINT ( 'NONE',  ( 0.6520000000000000240, 7.984697130440741254E-17, 2.375000000000000000 ) ) ;
#292 = VERTEX_POINT ( 'NONE', #95 ) ;
#293 = CARTESIAN_POINT ( 'NONE',  ( 0.000000000000000000, 0.000000000000000000, 2.375000000000000000 ) ) ;
#294 = ADVANCED_FACE ( 'NONE', ( #323 ), #242, .F. ) ;
#295 = ORIENTED_EDGE ( 'NONE', *, *, #164, .F. ) ;
#296 = DIRECTION ( 'NONE',  ( 1.000000000000000000, 0.000000000000000000, 0.000000000000000000 ) ) ;
#297 = ORIENTED_EDGE ( 'NONE', *, *, #140, .F. ) ;
#298 = CIRCLE ( 'NONE', #124, 0.6382677165354337934 ) ;
#299 = DIRECTION ( 'NONE',  ( 0.000000000000000000, 0.000000000000000000, 1.000000000000000000 ) ) ;
#300 = AXIS2_PLACEMENT_3D ( 'NONE', #315, #145, #57 ) ;
#301 = PLANE ( 'NONE',  #49 ) ;
#302 = ADVANCED_FACE ( 'NONE', ( #303, #104 ), #301, .T. ) ;
#303 = FACE_BOUND ( 'NONE', #134, .T. ) ;
#304 = AXIS2_PLACEMENT_3D ( 'NONE', #148, #255, #381 ) ;
#305 = AXIS2_PLACEMENT_3D ( 'NONE', #368, #166, #277 ) ;
#306 = CC_DESIGN_PERSON_AND_ORGANIZATION_ASSIGNMENT ( #190, #70, ( #250 ) ) ;
#307 = PERSON_AND_ORGANIZATION ( #374, #154 ) ;
#308 = EDGE_LOOP ( 'NONE', ( #30, #60 ) ) ;
#309 = PERSON_AND_ORGANIZATION_ROLE ( 'design_supplier' ) ;
#310 = CARTESIAN_POINT ( 'NONE',  ( -0.6875000000000000000, 0.000000000000000000, 1.875000000000000000 ) ) ;
#311 = CIRCLE ( 'NONE', #71, 0.6082677165354329896 ) ;
#312 = SECURITY_CLASSIFICATION_LEVEL ( 'unclassified' ) ;
#313 = CARTESIAN_POINT ( 'NONE',  ( 0.000000000000000000, 0.000000000000000000, 1.875000000000000000 ) ) ;
#314 = COORDINATED_UNIVERSAL_TIME_OFFSET ( 8, 0, .BEHIND. ) ;
#315 = CARTESIAN_POINT ( 'NONE',  ( 0.000000000000000000, 0.000000000000000000, 0.000000000000000000 ) ) ;
#316 = DIRECTION ( 'NONE',  ( -0.000000000000000000, -0.000000000000000000, -1.000000000000000000 ) ) ;
#317 = CIRCLE ( 'NONE', #92, 0.6875000000000000000 ) ;
#318 = EDGE_CURVE ( 'NONE', #208, #266, #34, .T. ) ;
#319 = DIRECTION ( 'NONE',  ( -0.1842885350501808905, 2.256883645687588433E-17, 0.9828721869343227668 ) ) ;
#320 = AXIS2_PLACEMENT_3D ( 'NONE', #221, #254, #343 ) ;
#321 = CARTESIAN_POINT ( 'NONE',  ( 0.000000000000000000, 0.000000000000000000, 0.000000000000000000 ) ) ;
#322 = CARTESIAN_POINT ( 'NONE',  ( 0.6082677165354329896, 7.449131120797877398E-17, 0.000000000000000000 ) ) ;
#323 = FACE_OUTER_BOUND ( 'NONE', #10, .T. ) ;
#324 = DIRECTION ( 'NONE',  ( 0.000000000000000000, -0.000000000000000000, -1.000000000000000000 ) ) ;
#325 = ORIENTED_EDGE ( 'NONE', *, *, #318, .F. ) ;
#326 = ORIENTED_EDGE ( 'NONE', *, *, #346, .F. ) ;
#327 = APPLICATION_CONTEXT ( 'configuration controlled 3d designs of mechanical parts and assemblies' ) ;
#328 = CYLINDRICAL_SURFACE ( 'NONE', #7, 0.6082677165354329896 ) ;
#329 = PLANE ( 'NONE',  #339 ) ;
#330 = DIRECTION ( 'NONE',  ( -0.000000000000000000, 0.000000000000000000, 1.000000000000000000 ) ) ;
#331 = ORIENTED_EDGE ( 'NONE', *, *, #194, .T. ) ;
#332 = MECHANICAL_CONTEXT ( 'NONE', #168, 'mechanical' ) ;
#333 = DIRECTION ( 'NONE',  ( 1.000000000000000000, 0.000000000000000000, 0.000000000000000000 ) ) ;
#334 = EDGE_LOOP ( 'NONE', ( #4, #263 ) ) ;
#335 = DIRECTION ( 'NONE',  ( 1.000000000000000000, 0.000000000000000000, 0.000000000000000000 ) ) ;
#336 = CARTESIAN_POINT ( 'NONE',  ( 0.000000000000000000, 0.000000000000000000, 1.875000000000000000 ) ) ;
#337 = EDGE_CURVE ( 'NONE', #89, #209, #257, .T. ) ;
#338 = CIRCLE ( 'NONE', #282, 0.6875000000000000000 ) ;
#339 = AXIS2_PLACEMENT_3D ( 'NONE', #45, #48, #52 ) ;
#340 = PERSON_AND_ORGANIZATION ( #374, #154 ) ;
#341 = DATE_TIME_ROLE ( 'creation_date' ) ;
#342 = MANIFOLD_SOLID_BREP ( 'Chamfer1', #151 ) ;
#343 = DIRECTION ( 'NONE',  ( -1.000000000000000000, 0.000000000000000000, 0.000000000000000000 ) ) ;
#344 = PERSON_AND_ORGANIZATION_ROLE ( 'creator' ) ;
#345 = CYLINDRICAL_SURFACE ( 'NONE', #186, 0.6875000000000000000 ) ;
#346 = EDGE_CURVE ( 'NONE', #266, #103, #107, .T. ) ;
#347 = ORIENTED_EDGE ( 'NONE', *, *, #245, .F. ) ;
#348 = CARTESIAN_POINT ( 'NONE',  ( 0.6082677165354329896, 7.449131120797877398E-17, 2.214999999999991864 ) ) ;
#349 = ORIENTED_EDGE ( 'NONE', *, *, #337, .F. ) ;
#350 = AXIS2_PLACEMENT_3D ( 'NONE', #62, #324, #122 ) ;
#351 = DIRECTION ( 'NONE',  ( -0.000000000000000000, 0.000000000000000000, 1.000000000000000000 ) ) ;
#352 = DIRECTION ( 'NONE',  ( 0.000000000000000000, 0.000000000000000000, 1.000000000000000000 ) ) ;
#353 = ORIENTED_EDGE ( 'NONE', *, *, #21, .F. ) ;
#354 = DIRECTION ( 'NONE',  ( -0.000000000000000000, -0.000000000000000000, -1.000000000000000000 ) ) ;
#355 = EDGE_LOOP ( 'NONE', ( #259, #132, #227, #182 ) ) ;
#356 = CARTESIAN_POINT ( 'NONE',  ( 0.000000000000000000, 0.000000000000000000, 0.000000000000000000 ) ) ;
#357 = AXIS2_PLACEMENT_3D ( 'NONE', #53, #115, #281 ) ;
#358 = DIRECTION ( 'NONE',  ( -0.000000000000000000, -0.000000000000000000, -1.000000000000000000 ) ) ;
#359 = EDGE_CURVE ( 'NONE', #378, #253, #79, .T. ) ;
#360 = DIRECTION ( 'NONE',  ( 1.000000000000000000, 0.000000000000000000, 0.000000000000000000 ) ) ;
#361 = VERTEX_POINT ( 'NONE', #131 ) ;
#362 = DIRECTION ( 'NONE',  ( 0.000000000000000000, 0.000000000000000000, 1.000000000000000000 ) ) ;
#363 = AXIS2_PLACEMENT_3D ( 'NONE', #46, #42, #218 ) ;
#364 =( NAMED_UNIT ( * ) SI_UNIT ( $, .STERADIAN. ) SOLID_ANGLE_UNIT ( ) );
#365 = ADVANCED_FACE ( 'NONE', ( #162 ), #159, .T. ) ;
#366 = APPROVAL_ROLE ( '' ) ;
#367 = CIRCLE ( 'NONE', #300, 0.6875000000000000000 ) ;
#368 = CARTESIAN_POINT ( 'NONE',  ( 0.000000000000000000, 0.000000000000000000, 2.214999999999991864 ) ) ;
#369 = EDGE_CURVE ( 'NONE', #37, #208, #317, .T. ) ;
#370 = CYLINDRICAL_SURFACE ( 'NONE', #320, 0.6520000000000000240 ) ;
#371 = CALENDAR_DATE ( 2025, 8, 5 ) ;
#372 = CYLINDRICAL_SURFACE ( 'NONE', #270, 0.6082677165354329896 ) ;
#373 = APPROVAL_DATE_TIME ( #248, #160 ) ;
#374 = PERSON ( 'UNSPECIFIED', 'UNSPECIFIED', 'UNSPECIFIED', ('UNSPECIFIED'), ('UNSPECIFIED'), ('UNSPECIFIED') ) ;
#375 = CARTESIAN_POINT ( 'NONE',  ( 0.6082677165354329896, 7.449131120797877398E-17, 1.875000000000000000 ) ) ;
#376 = CC_DESIGN_PERSON_AND_ORGANIZATION_ASSIGNMENT ( #139, #309, ( #20 ) ) ;
#377 = CARTESIAN_POINT ( 'NONE',  ( -0.6520000000000000240, 0.000000000000000000, 2.375000000000000000 ) ) ;
#378 = VERTEX_POINT ( 'NONE', #11 ) ;
#379 = CARTESIAN_POINT ( 'NONE',  ( 0.6520000000000000240, 7.984697130440741254E-17, 2.375000000000000000 ) ) ;
#380 = EDGE_LOOP ( 'NONE', ( #12, #8 ) ) ;
#381 = DIRECTION ( 'NONE',  ( -1.000000000000000000, 0.000000000000000000, 0.000000000000000000 ) ) ;
#382 = AXIS2_PLACEMENT_3D ( 'NONE', #321, #61, #174 ) ;
ENDSEC;
END-ISO-10303-21;
