ISO-10303-21;
HEADER;
FILE_DESCRIPTION (( 'STEP AP214' ),
    '1' );
FILE_NAME ('MS2009.STEP',
    '2013-10-16T18:20:54',
    ( '' ),
    ( '' ),
    'SwSTEP 2.0',
    'SolidWorks 2012',
    '' );
FILE_SCHEMA (( 'AUTOMOTIVE_DESIGN' ));
ENDSEC;

DATA;
#1 = ADVANCED_FACE ( 'NONE', ( #160, #140 ), #69, .T. ) ;
#2 = DIMENSIONAL_EXPONENTS ( 1.000000000000000000, 0.0000000000000000000, 0.0000000000000000000, 0.0000000000000000000, 0.0000000000000000000, 0.0000000000000000000, 0.0000000000000000000 ) ;
#3 = ADVANCED_FACE ( 'NONE', ( #126, #67 ), #115, .F. ) ;
#4 = DIMENSIONAL_EXPONENTS ( 1.000000000000000000, 0.0000000000000000000, 0.0000000000000000000, 0.0000000000000000000, 0.0000000000000000000, 0.0000000000000000000, 0.0000000000000000000 ) ;
#5 = ADVANCED_FACE ( 'NONE', ( #59, #99 ), #224, .T. ) ;
#6 = DIMENSIONAL_EXPONENTS ( 1.000000000000000000, 0.0000000000000000000, 0.0000000000000000000, 0.0000000000000000000, 0.0000000000000000000, 0.0000000000000000000, 0.0000000000000000000 ) ;
#7 = ADVANCED_FACE ( 'NONE', ( #96, #92 ), #64, .F. ) ;
#8 = ADVANCED_FACE ( 'NONE', ( #61, #63 ), #65, .F. ) ;
#9 = ADVANCED_FACE ( 'NONE', ( #62, #100 ), #60, .F. ) ;
#10 = ADVANCED_FACE ( 'NONE', ( #58, #20 ), #21, .T. ) ;
#11 = ADVANCED_FACE ( 'NONE', ( #19, #79 ), #57, .F. ) ;
#12 = ADVANCED_FACE ( 'NONE', ( #25, #23 ), #29, .T. ) ;
#13 = ADVANCED_FACE ( 'NONE', ( #22, #24 ), #335, .T. ) ;
#14 = ADVANCED_FACE ( 'NONE', ( #66, #30 ), #32, .T. ) ;
#15 = ADVANCED_FACE ( 'NONE', ( #27, #33 ), #36, .F. ) ;
#16 = ADVANCED_FACE ( 'NONE', ( #31, #28 ), #258, .T. ) ;
#17 = ADVANCED_FACE ( 'NONE', ( #26, #37 ), #47, .F. ) ;
#18 = ADVANCED_FACE ( 'NONE', ( #35, #38 ), #34, .F. ) ;
#19 = FACE_OUTER_BOUND ( 'NONE', #133, .T. ) ;
#20 = FACE_OUTER_BOUND ( 'NONE', #72, .T. ) ;
#21 = CYLINDRICAL_SURFACE ( 'NONE', #183, 0.7834999999999999700 ) ;
#22 = FACE_OUTER_BOUND ( 'NONE', #145, .T. ) ;
#23 = FACE_BOUND ( 'NONE', #78, .T. ) ;
#24 = FACE_BOUND ( 'NONE', #71, .T. ) ;
#25 = FACE_OUTER_BOUND ( 'NONE', #144, .T. ) ;
#26 = FACE_OUTER_BOUND ( 'NONE', #70, .T. ) ;
#27 = FACE_BOUND ( 'NONE', #157, .T. ) ;
#28 = FACE_OUTER_BOUND ( 'NONE', #156, .T. ) ;
#29 = CONICAL_SURFACE ( 'NONE', #182, 0.5861397389029999700, 0.1256207276446973400 ) ;
#30 = FACE_OUTER_BOUND ( 'NONE', #94, .T. ) ;
#31 = FACE_BOUND ( 'NONE', #68, .T. ) ;
#32 = CYLINDRICAL_SURFACE ( 'NONE', #203, 0.5624999999999998900 ) ;
#33 = FACE_OUTER_BOUND ( 'NONE', #77, .T. ) ;
#34 = TOROIDAL_SURFACE ( 'NONE', #202, -0.2119777225837339600, 1.000000000000000200 ) ;
#35 = FACE_OUTER_BOUND ( 'NONE', #73, .T. ) ;
#36 = CONICAL_SURFACE ( 'NONE', #180, 0.8149999999999999500, 0.02063300485775973500 ) ;
#37 = FACE_OUTER_BOUND ( 'NONE', #81, .T. ) ;
#38 = FACE_OUTER_BOUND ( 'NONE', #82, .T. ) ;
#39 = COLOUR_RGB ( '',0.7921568627450980000, 0.8196078431372548800, 0.9333333333333333500 ) ;
#40 = VERTEX_POINT ( 'NONE', #331 ) ;
#41 = CIRCLE ( 'NONE', #198, 0.6389877401089997200 ) ;
#42 = CIRCLE ( 'NONE', #200, 0.7834999999999999700 ) ;
#43 = CIRCLE ( 'NONE', #196, 0.6585000000000002000 ) ;
#44 = CIRCLE ( 'NONE', #195, 0.8750000000000000000 ) ;
#45 = CIRCLE ( 'NONE', #194, 0.5861397389029999700 ) ;
#46 = CIRCLE ( 'NONE', #193, 0.7878094245229999600 ) ;
#47 = CYLINDRICAL_SURFACE ( 'NONE', #199, 0.6585000000000000900 ) ;
#48 = CIRCLE ( 'NONE', #190, 0.7835000000000000900 ) ;
#49 = CIRCLE ( 'NONE', #189, 0.8149999999999999500 ) ;
#50 = CIRCLE ( 'NONE', #178, 0.5000000000000000000 ) ;
#51 = CIRCLE ( 'NONE', #204, 0.8750000000000000000 ) ;
#52 = CIRCLE ( 'NONE', #197, 0.5624999999999997800 ) ;
#53 = CIRCLE ( 'NONE', #206, 0.6584999999999998600 ) ;
#54 = CIRCLE ( 'NONE', #207, 0.8145000000000000000 ) ;
#55 = CIRCLE ( 'NONE', #191, 0.5000000000000000000 ) ;
#56 = SURFACE_STYLE_FILL_AREA ( #305 ) ;
#57 = TOROIDAL_SURFACE ( 'NONE', #192, 0.8145000000000000000, 0.03099999999999981900 ) ;
#58 = FACE_OUTER_BOUND ( 'NONE', #80, .T. ) ;
#59 = FACE_OUTER_BOUND ( 'NONE', #141, .T. ) ;
#60 = TOROIDAL_SURFACE ( 'NONE', #187, 3.562500000000000400, 3.000000000000000900 ) ;
#61 = FACE_BOUND ( 'NONE', #84, .T. ) ;
#62 = FACE_OUTER_BOUND ( 'NONE', #88, .T. ) ;
#63 = FACE_OUTER_BOUND ( 'NONE', #123, .T. ) ;
#64 = CYLINDRICAL_SURFACE ( 'NONE', #184, 0.5000000000000000000 ) ;
#65 = CONICAL_SURFACE ( 'NONE', #185, 0.6389877401089997200, 0.1141152873912638200 ) ;
#66 = FACE_OUTER_BOUND ( 'NONE', #87, .T. ) ;
#67 = FACE_OUTER_BOUND ( 'NONE', #76, .T. ) ;
#68 = EDGE_LOOP ( 'NONE', ( #152 ) ) ;
#69 = CYLINDRICAL_SURFACE ( 'NONE', #188, 0.8750000000000000000 ) ;
#70 = EDGE_LOOP ( 'NONE', ( #105 ) ) ;
#71 = EDGE_LOOP ( 'NONE', ( #143 ) ) ;
#72 = EDGE_LOOP ( 'NONE', ( #138 ) ) ;
#73 = EDGE_LOOP ( 'NONE', ( #137 ) ) ;
#74 = VERTEX_POINT ( 'NONE', #339 ) ;
#75 = EDGE_LOOP ( 'NONE', ( #85 ) ) ;
#76 = EDGE_LOOP ( 'NONE', ( #134 ) ) ;
#77 = EDGE_LOOP ( 'NONE', ( #89 ) ) ;
#78 = EDGE_LOOP ( 'NONE', ( #146 ) ) ;
#79 = FACE_OUTER_BOUND ( 'NONE', #91, .T. ) ;
#80 = EDGE_LOOP ( 'NONE', ( #124 ) ) ;
#81 = EDGE_LOOP ( 'NONE', ( #131 ) ) ;
#82 = EDGE_LOOP ( 'NONE', ( #114 ) ) ;
#83 = EDGE_LOOP ( 'NONE', ( #158 ) ) ;
#84 = EDGE_LOOP ( 'NONE', ( #155 ) ) ;
#85 = ORIENTED_EDGE ( 'NONE', *, *, #164, .F. ) ;
#86 = ORIENTED_EDGE ( 'NONE', *, *, #177, .F. ) ;
#87 = EDGE_LOOP ( 'NONE', ( #129 ) ) ;
#88 = EDGE_LOOP ( 'NONE', ( #139 ) ) ;
#89 = ORIENTED_EDGE ( 'NONE', *, *, #172, .F. ) ;
#90 = EDGE_LOOP ( 'NONE', ( #150 ) ) ;
#91 = EDGE_LOOP ( 'NONE', ( #128 ) ) ;
#92 = FACE_OUTER_BOUND ( 'NONE', #107, .T. ) ;
#93 = LENGTH_MEASURE_WITH_UNIT ( LENGTH_MEASURE( 0.02539999999999999900 ), #262 );
#94 = EDGE_LOOP ( 'NONE', ( #136 ) ) ;
#95 = LENGTH_MEASURE_WITH_UNIT ( LENGTH_MEASURE( 0.02539999999999999900 ), #271 );
#96 = FACE_OUTER_BOUND ( 'NONE', #159, .T. ) ;
#97 = EDGE_LOOP ( 'NONE', ( #151 ) ) ;
#98 = CIRCLE ( 'NONE', #205, 0.5625000000000000000 ) ;
#99 = FACE_BOUND ( 'NONE', #148, .T. ) ;
#100 = FACE_OUTER_BOUND ( 'NONE', #75, .T. ) ;
#101 = PRESENTATION_STYLE_ASSIGNMENT (( #293 ) ) ;
#102 = COLOUR_RGB ( '',0.7921568627450980000, 0.8196078431372548800, 0.9333333333333333500 ) ;
#103 = SURFACE_STYLE_FILL_AREA ( #350 ) ;
#104 = PRESENTATION_STYLE_ASSIGNMENT (( #329 ) ) ;
#105 = ORIENTED_EDGE ( 'NONE', *, *, #176, .T. ) ;
#106 = LENGTH_MEASURE_WITH_UNIT ( LENGTH_MEASURE( 0.02539999999999999900 ), #310 );
#107 = EDGE_LOOP ( 'NONE', ( #147 ) ) ;
#108 = ORIENTED_EDGE ( 'NONE', *, *, #177, .T. ) ;
#109 = VERTEX_POINT ( 'NONE', #344 ) ;
#110 = VERTEX_POINT ( 'NONE', #251 ) ;
#111 = VERTEX_POINT ( 'NONE', #342 ) ;
#112 = VERTEX_POINT ( 'NONE', #343 ) ;
#113 = VERTEX_POINT ( 'NONE', #285 ) ;
#114 = ORIENTED_EDGE ( 'NONE', *, *, #169, .F. ) ;
#115 = TOROIDAL_SURFACE ( 'NONE', #179, -2.341499999999999900, 2.999999999999999600 ) ;
#116 = VERTEX_POINT ( 'NONE', #336 ) ;
#117 = VERTEX_POINT ( 'NONE', #275 ) ;
#118 = VERTEX_POINT ( 'NONE', #282 ) ;
#119 = VERTEX_POINT ( 'NONE', #337 ) ;
#120 = VERTEX_POINT ( 'NONE', #286 ) ;
#121 = VERTEX_POINT ( 'NONE', #284 ) ;
#122 = ORIENTED_EDGE ( 'NONE', *, *, #162, .T. ) ;
#123 = EDGE_LOOP ( 'NONE', ( #142 ) ) ;
#124 = ORIENTED_EDGE ( 'NONE', *, *, #171, .T. ) ;
#125 = VERTEX_POINT ( 'NONE', #279 ) ;
#126 = FACE_OUTER_BOUND ( 'NONE', #83, .T. ) ;
#127 = ORIENTED_EDGE ( 'NONE', *, *, #170, .T. ) ;
#128 = ORIENTED_EDGE ( 'NONE', *, *, #171, .F. ) ;
#129 = ORIENTED_EDGE ( 'NONE', *, *, #164, .T. ) ;
#130 = VERTEX_POINT ( 'NONE', #338 ) ;
#131 = ORIENTED_EDGE ( 'NONE', *, *, #166, .F. ) ;
#132 = ORIENTED_EDGE ( 'NONE', *, *, #175, .T. ) ;
#133 = EDGE_LOOP ( 'NONE', ( #108 ) ) ;
#134 = ORIENTED_EDGE ( 'NONE', *, *, #176, .F. ) ;
#135 = CLOSED_SHELL ( 'NONE', ( #8, #7, #13, #14, #9, #12, #10, #11, #5, #1, #16, #15, #18, #17, #3 ) ) ;
#136 = ORIENTED_EDGE ( 'NONE', *, *, #175, .F. ) ;
#137 = ORIENTED_EDGE ( 'NONE', *, *, #166, .T. ) ;
#138 = ORIENTED_EDGE ( 'NONE', *, *, #162, .F. ) ;
#139 = ORIENTED_EDGE ( 'NONE', *, *, #168, .T. ) ;
#140 = FACE_OUTER_BOUND ( 'NONE', #90, .T. ) ;
#141 = EDGE_LOOP ( 'NONE', ( #149 ) ) ;
#142 = ORIENTED_EDGE ( 'NONE', *, *, #163, .F. ) ;
#143 = ORIENTED_EDGE ( 'NONE', *, *, #170, .F. ) ;
#144 = EDGE_LOOP ( 'NONE', ( #122 ) ) ;
#145 = EDGE_LOOP ( 'NONE', ( #132 ) ) ;
#146 = ORIENTED_EDGE ( 'NONE', *, *, #168, .F. ) ;
#147 = ORIENTED_EDGE ( 'NONE', *, *, #173, .F. ) ;
#148 = EDGE_LOOP ( 'NONE', ( #86 ) ) ;
#149 = ORIENTED_EDGE ( 'NONE', *, *, #174, .T. ) ;
#150 = ORIENTED_EDGE ( 'NONE', *, *, #174, .F. ) ;
#151 = ORIENTED_EDGE ( 'NONE', *, *, #167, .T. ) ;
#152 = ORIENTED_EDGE ( 'NONE', *, *, #172, .T. ) ;
#153 = ORIENTED_EDGE ( 'NONE', *, *, #169, .T. ) ;
#154 = ORIENTED_EDGE ( 'NONE', *, *, #167, .F. ) ;
#155 = ORIENTED_EDGE ( 'NONE', *, *, #173, .T. ) ;
#156 = EDGE_LOOP ( 'NONE', ( #154 ) ) ;
#157 = EDGE_LOOP ( 'NONE', ( #153 ) ) ;
#158 = ORIENTED_EDGE ( 'NONE', *, *, #163, .T. ) ;
#159 = EDGE_LOOP ( 'NONE', ( #127 ) ) ;
#160 = FACE_OUTER_BOUND ( 'NONE', #97, .T. ) ;
#161 = SHAPE_DEFINITION_REPRESENTATION ( #363, #357 ) ;
#162 = EDGE_CURVE ( 'NONE', #40, #40, #42, .T. ) ;
#163 = EDGE_CURVE ( 'NONE', #118, #118, #41, .T. ) ;
#164 = EDGE_CURVE ( 'NONE', #110, #110, #52, .T. ) ;
#165 = PRODUCT ( 'MS2009', 'MS2009', '', ( #241 ) ) ;
#166 = EDGE_CURVE ( 'NONE', #125, #125, #43, .T. ) ;
#167 = EDGE_CURVE ( 'NONE', #116, #116, #44, .T. ) ;
#168 = EDGE_CURVE ( 'NONE', #119, #119, #45, .T. ) ;
#169 = EDGE_CURVE ( 'NONE', #109, #109, #46, .T. ) ;
#170 = EDGE_CURVE ( 'NONE', #112, #112, #55, .T. ) ;
#171 = EDGE_CURVE ( 'NONE', #130, #130, #48, .T. ) ;
#172 = EDGE_CURVE ( 'NONE', #120, #120, #49, .T. ) ;
#173 = EDGE_CURVE ( 'NONE', #113, #113, #50, .T. ) ;
#174 = EDGE_CURVE ( 'NONE', #111, #111, #51, .T. ) ;
#175 = EDGE_CURVE ( 'NONE', #117, #117, #98, .T. ) ;
#176 = EDGE_CURVE ( 'NONE', #121, #121, #53, .T. ) ;
#177 = EDGE_CURVE ( 'NONE', #74, #74, #54, .T. ) ;
#178 = AXIS2_PLACEMENT_3D ( 'NONE', #314, #307, #243 ) ;
#179 = AXIS2_PLACEMENT_3D ( 'NONE', #242, #322, #245 ) ;
#180 = AXIS2_PLACEMENT_3D ( 'NONE', #320, #303, #319 ) ;
#181 = AXIS2_PLACEMENT_3D ( 'NONE', #228, #263, #281 ) ;
#182 = AXIS2_PLACEMENT_3D ( 'NONE', #233, #277, #321 ) ;
#183 = AXIS2_PLACEMENT_3D ( 'NONE', #267, #289, #250 ) ;
#184 = AXIS2_PLACEMENT_3D ( 'NONE', #334, #237, #222 ) ;
#185 = AXIS2_PLACEMENT_3D ( 'NONE', #261, #316, #239 ) ;
#186 = AXIS2_PLACEMENT_3D ( 'NONE', #255, #313, #249 ) ;
#187 = AXIS2_PLACEMENT_3D ( 'NONE', #268, #246, #302 ) ;
#188 = AXIS2_PLACEMENT_3D ( 'NONE', #227, #323, #252 ) ;
#189 = AXIS2_PLACEMENT_3D ( 'NONE', #288, #318, #230 ) ;
#190 = AXIS2_PLACEMENT_3D ( 'NONE', #328, #340, #352 ) ;
#191 = AXIS2_PLACEMENT_3D ( 'NONE', #354, #291, #306 ) ;
#192 = AXIS2_PLACEMENT_3D ( 'NONE', #232, #295, #234 ) ;
#193 = AXIS2_PLACEMENT_3D ( 'NONE', #326, #265, #315 ) ;
#194 = AXIS2_PLACEMENT_3D ( 'NONE', #248, #266, #304 ) ;
#195 = AXIS2_PLACEMENT_3D ( 'NONE', #330, #308, #309 ) ;
#196 = AXIS2_PLACEMENT_3D ( 'NONE', #260, #332, #225 ) ;
#197 = AXIS2_PLACEMENT_3D ( 'NONE', #283, #297, #229 ) ;
#198 = AXIS2_PLACEMENT_3D ( 'NONE', #341, #274, #333 ) ;
#199 = AXIS2_PLACEMENT_3D ( 'NONE', #273, #276, #317 ) ;
#200 = AXIS2_PLACEMENT_3D ( 'NONE', #270, #244, #240 ) ;
#201 = AXIS2_PLACEMENT_3D ( 'NONE', #235, #300, #272 ) ;
#202 = AXIS2_PLACEMENT_3D ( 'NONE', #311, #257, #223 ) ;
#203 = AXIS2_PLACEMENT_3D ( 'NONE', #296, #236, #278 ) ;
#204 = AXIS2_PLACEMENT_3D ( 'NONE', #325, #231, #301 ) ;
#205 = AXIS2_PLACEMENT_3D ( 'NONE', #294, #221, #259 ) ;
#206 = AXIS2_PLACEMENT_3D ( 'NONE', #238, #353, #347 ) ;
#207 = AXIS2_PLACEMENT_3D ( 'NONE', #254, #280, #299 ) ;
#208 = STYLED_ITEM ( 'NONE', ( #101 ), #359 ) ;
#209 = PRESENTATION_LAYER_ASSIGNMENT (  '', '', ( #208 ) ) ;
#210 = MECHANICAL_DESIGN_GEOMETRIC_PRESENTATION_REPRESENTATION (  '', ( #208 ), #211 ) ;
#211 =( GEOMETRIC_REPRESENTATION_CONTEXT ( 3 ) GLOBAL_UNCERTAINTY_ASSIGNED_CONTEXT ( ( #358 ) ) GLOBAL_UNIT_ASSIGNED_CONTEXT ( ( #247, #287, #264 ) ) REPRESENTATION_CONTEXT ( 'NONE', 'WORKASPACE' ) );
#212 =( GEOMETRIC_REPRESENTATION_CONTEXT ( 3 ) GLOBAL_UNCERTAINTY_ASSIGNED_CONTEXT ( ( #361 ) ) GLOBAL_UNIT_ASSIGNED_CONTEXT ( ( #269, #256, #348 ) ) REPRESENTATION_CONTEXT ( 'NONE', 'WORKASPACE' ) );
#213 = STYLED_ITEM ( 'NONE', ( #104 ), #357 ) ;
#214 = PRESENTATION_LAYER_ASSIGNMENT (  '', '', ( #213 ) ) ;
#215 = MECHANICAL_DESIGN_GEOMETRIC_PRESENTATION_REPRESENTATION (  '', ( #213 ), #216 ) ;
#216 =( GEOMETRIC_REPRESENTATION_CONTEXT ( 3 ) GLOBAL_UNCERTAINTY_ASSIGNED_CONTEXT ( ( #360 ) ) GLOBAL_UNIT_ASSIGNED_CONTEXT ( ( #226, #312, #345 ) ) REPRESENTATION_CONTEXT ( 'NONE', 'WORKASPACE' ) );
#217 = AXIS2_PLACEMENT_3D ( 'NONE', #346, #355, #298 ) ;
#218 = PRODUCT_DEFINITION ( 'UNKNOWN', '', #219, #362 ) ;
#219 = PRODUCT_DEFINITION_FORMATION_WITH_SPECIFIED_SOURCE ( 'ANY', '', #165, .NOT_KNOWN. ) ;
#220 = PRODUCT_RELATED_PRODUCT_CATEGORY ( 'part', '', ( #165 ) ) ;
#221 = DIRECTION ( 'NONE',  ( 1.000000000000000000, -0.0000000000000000000, -0.0000000000000000000 ) ) ;
#222 = DIRECTION ( 'NONE',  ( 0.0000000000000000000, 0.0000000000000000000, -1.000000000000000000 ) ) ;
#223 = DIRECTION ( 'NONE',  ( 0.0000000000000000000, 0.0000000000000000000, -1.000000000000000000 ) ) ;
#224 = PLANE ( 'NONE',  #186 ) ;
#225 = DIRECTION ( 'NONE',  ( 0.0000000000000000000, 0.0000000000000000000, -1.000000000000000000 ) ) ;
#226 =( CONVERSION_BASED_UNIT ( 'INCH', #106 ) LENGTH_UNIT ( ) NAMED_UNIT ( #4 ) );
#227 = CARTESIAN_POINT ( 'NONE',  ( 1.000000000000000000, 0.0000000000000000000, 0.0000000000000000000 ) ) ;
#228 = CARTESIAN_POINT ( 'NONE',  ( 1.000000000000000000, 0.5000000000000000000, 0.0000000000000000000 ) ) ;
#229 = DIRECTION ( 'NONE',  ( 0.0000000000000000000, 0.0000000000000000000, -1.000000000000000000 ) ) ;
#230 = DIRECTION ( 'NONE',  ( 0.0000000000000000000, 0.0000000000000000000, -1.000000000000000000 ) ) ;
#231 = DIRECTION ( 'NONE',  ( 1.000000000000000000, -0.0000000000000000000, -0.0000000000000000000 ) ) ;
#232 = CARTESIAN_POINT ( 'NONE',  ( -7.969000000000000300, 0.0000000000000000000, 0.0000000000000000000 ) ) ;
#233 = CARTESIAN_POINT ( 'NONE',  ( -6.187192502624000700, 0.0000000000000000000, 0.0000000000000000000 ) ) ;
#234 = DIRECTION ( 'NONE',  ( 0.0000000000000000000, 0.0000000000000000000, -1.000000000000000000 ) ) ;
#235 = CARTESIAN_POINT ( 'NONE',  ( -10.00000000000000000, 0.8149999999999999500, 0.0000000000000000000 ) ) ;
#236 = DIRECTION ( 'NONE',  ( 1.000000000000000000, -0.0000000000000000000, -0.0000000000000000000 ) ) ;
#237 = DIRECTION ( 'NONE',  ( 1.000000000000000000, -0.0000000000000000000, -0.0000000000000000000 ) ) ;
#238 = CARTESIAN_POINT ( 'NONE',  ( -7.554270842737000000, 0.0000000000000000000, 0.0000000000000000000 ) ) ;
#239 = DIRECTION ( 'NONE',  ( 0.0000000000000000000, 0.0000000000000000000, 1.000000000000000000 ) ) ;
#240 = DIRECTION ( 'NONE',  ( 0.0000000000000000000, 0.0000000000000000000, -1.000000000000000000 ) ) ;
#241 = PRODUCT_CONTEXT ( 'NONE', #324, 'mechanical' ) ;
#242 = CARTESIAN_POINT ( 'NONE',  ( -7.554270842739801300, 0.0000000000000000000, 0.0000000000000000000 ) ) ;
#243 = DIRECTION ( 'NONE',  ( 0.0000000000000000000, 0.0000000000000000000, -1.000000000000000000 ) ) ;
#244 = DIRECTION ( 'NONE',  ( 1.000000000000000000, -0.0000000000000000000, -0.0000000000000000000 ) ) ;
#245 = DIRECTION ( 'NONE',  ( 0.0000000000000000000, 0.0000000000000000000, -1.000000000000000000 ) ) ;
#246 = DIRECTION ( 'NONE',  ( 1.000000000000000000, -0.0000000000000000000, -0.0000000000000000000 ) ) ;
#247 =( CONVERSION_BASED_UNIT ( 'INCH', #93 ) LENGTH_UNIT ( ) NAMED_UNIT ( #2 ) );
#248 = CARTESIAN_POINT ( 'NONE',  ( -6.187192502624000700, 0.0000000000000000000, 0.0000000000000000000 ) ) ;
#249 = DIRECTION ( 'NONE',  ( -0.0000000000000000000, 0.0000000000000000000, -1.000000000000000000 ) ) ;
#250 = DIRECTION ( 'NONE',  ( 0.0000000000000000000, 0.0000000000000000000, -1.000000000000000000 ) ) ;
#251 = CARTESIAN_POINT ( 'NONE',  ( -5.811320721080001300, 0.0000000000000000000, -0.5624999999999997800 ) ) ;
#252 = DIRECTION ( 'NONE',  ( 0.0000000000000000000, 0.0000000000000000000, -1.000000000000000000 ) ) ;
#253 = SURFACE_SIDE_STYLE ('',( #103 ) ) ;
#254 = CARTESIAN_POINT ( 'NONE',  ( -8.000000000000000000, 0.0000000000000000000, 0.0000000000000000000 ) ) ;
#255 = CARTESIAN_POINT ( 'NONE',  ( -8.000000000000000000, 0.8145000000000000000, 0.0000000000000000000 ) ) ;
#256 =( NAMED_UNIT ( * ) PLANE_ANGLE_UNIT ( ) SI_UNIT ( $, .RADIAN. ) );
#257 = DIRECTION ( 'NONE',  ( 1.000000000000000000, -0.0000000000000000000, -0.0000000000000000000 ) ) ;
#258 = PLANE ( 'NONE',  #201 ) ;
#259 = DIRECTION ( 'NONE',  ( 0.0000000000000000000, 0.0000000000000000000, -1.000000000000000000 ) ) ;
#260 = CARTESIAN_POINT ( 'NONE',  ( -8.210791269995999300, 0.0000000000000000000, 0.0000000000000000000 ) ) ;
#261 = CARTESIAN_POINT ( 'NONE',  ( -7.212667518604999600, 0.0000000000000000000, 0.0000000000000000000 ) ) ;
#262 =( LENGTH_UNIT ( ) NAMED_UNIT ( * ) SI_UNIT ( $, .METRE. ) );
#263 = DIRECTION ( 'NONE',  ( 1.000000000000000000, 0.0000000000000000000, -0.0000000000000000000 ) ) ;
#264 =( NAMED_UNIT ( * ) SI_UNIT ( $, .STERADIAN. ) SOLID_ANGLE_UNIT ( ) );
#265 = DIRECTION ( 'NONE',  ( 1.000000000000000000, -0.0000000000000000000, -0.0000000000000000000 ) ) ;
#266 = DIRECTION ( 'NONE',  ( 1.000000000000000000, -0.0000000000000000000, -0.0000000000000000000 ) ) ;
#267 = CARTESIAN_POINT ( 'NONE',  ( 1.000000000000000000, 0.0000000000000000000, 0.0000000000000000000 ) ) ;
#268 = CARTESIAN_POINT ( 'NONE',  ( -5.811320721077954100, 0.0000000000000000000, 0.0000000000000000000 ) ) ;
#269 =( CONVERSION_BASED_UNIT ( 'INCH', #95 ) LENGTH_UNIT ( ) NAMED_UNIT ( #6 ) );
#270 = CARTESIAN_POINT ( 'NONE',  ( -7.750000000000000000, 0.0000000000000000000, 0.0000000000000000000 ) ) ;
#271 =( LENGTH_UNIT ( ) NAMED_UNIT ( * ) SI_UNIT ( $, .METRE. ) );
#272 = DIRECTION ( 'NONE',  ( 0.0000000000000000000, 0.0000000000000000000, 1.000000000000000000 ) ) ;
#273 = CARTESIAN_POINT ( 'NONE',  ( 1.000000000000000000, 0.0000000000000000000, 0.0000000000000000000 ) ) ;
#274 = DIRECTION ( 'NONE',  ( 1.000000000000000000, -0.0000000000000000000, -0.0000000000000000000 ) ) ;
#275 = CARTESIAN_POINT ( 'NONE',  ( 1.000000000000000000, 0.0000000000000000000, -0.5625000000000000000 ) ) ;
#276 = DIRECTION ( 'NONE',  ( 1.000000000000000000, -0.0000000000000000000, -0.0000000000000000000 ) ) ;
#277 = DIRECTION ( 'NONE',  ( -1.000000000000000000, 0.0000000000000000000, 0.0000000000000000000 ) ) ;
#278 = DIRECTION ( 'NONE',  ( 0.0000000000000000000, 0.0000000000000000000, -1.000000000000000000 ) ) ;
#279 = CARTESIAN_POINT ( 'NONE',  ( -8.210791269995999300, 0.0000000000000000000, -0.6585000000000002000 ) ) ;
#280 = DIRECTION ( 'NONE',  ( 1.000000000000000000, -0.0000000000000000000, -0.0000000000000000000 ) ) ;
#281 = DIRECTION ( 'NONE',  ( -0.0000000000000000000, 0.0000000000000000000, -1.000000000000000000 ) ) ;
#282 = CARTESIAN_POINT ( 'NONE',  ( -7.212667518604999600, 0.0000000000000000000, -0.6389877401089997200 ) ) ;
#283 = CARTESIAN_POINT ( 'NONE',  ( -5.811320721080001300, 0.0000000000000000000, 0.0000000000000000000 ) ) ;
#284 = CARTESIAN_POINT ( 'NONE',  ( -7.554270842737000000, 0.0000000000000000000, -0.6584999999999998600 ) ) ;
#285 = CARTESIAN_POINT ( 'NONE',  ( -5.999999999999999100, 0.0000000000000000000, -0.5000000000000000000 ) ) ;
#286 = CARTESIAN_POINT ( 'NONE',  ( -10.00000000000000000, 0.0000000000000000000, -0.8149999999999999500 ) ) ;
#287 =( NAMED_UNIT ( * ) PLANE_ANGLE_UNIT ( ) SI_UNIT ( $, .RADIAN. ) );
#288 = CARTESIAN_POINT ( 'NONE',  ( -10.00000000000000000, 0.0000000000000000000, 0.0000000000000000000 ) ) ;
#289 = DIRECTION ( 'NONE',  ( 1.000000000000000000, -0.0000000000000000000, -0.0000000000000000000 ) ) ;
#290 = APPLICATION_CONTEXT ( 'automotive_design' ) ;
#291 = DIRECTION ( 'NONE',  ( 1.000000000000000000, -0.0000000000000000000, -0.0000000000000000000 ) ) ;
#292 = SURFACE_SIDE_STYLE ('',( #56 ) ) ;
#293 = SURFACE_STYLE_USAGE ( .BOTH. , #292 ) ;
#294 = CARTESIAN_POINT ( 'NONE',  ( 1.000000000000000000, 0.0000000000000000000, 0.0000000000000000000 ) ) ;
#295 = DIRECTION ( 'NONE',  ( 1.000000000000000000, -0.0000000000000000000, -0.0000000000000000000 ) ) ;
#296 = CARTESIAN_POINT ( 'NONE',  ( 1.000000000000000000, 0.0000000000000000000, 0.0000000000000000000 ) ) ;
#297 = DIRECTION ( 'NONE',  ( 1.000000000000000000, -0.0000000000000000000, -0.0000000000000000000 ) ) ;
#298 = DIRECTION ( 'NONE',  ( 1.000000000000000000, 0.0000000000000000000, 0.0000000000000000000 ) ) ;
#299 = DIRECTION ( 'NONE',  ( 0.0000000000000000000, 0.0000000000000000000, -1.000000000000000000 ) ) ;
#300 = DIRECTION ( 'NONE',  ( -1.000000000000000000, 0.0000000000000000000, 0.0000000000000000000 ) ) ;
#301 = DIRECTION ( 'NONE',  ( 0.0000000000000000000, 0.0000000000000000000, -1.000000000000000000 ) ) ;
#302 = DIRECTION ( 'NONE',  ( 0.0000000000000000000, 0.0000000000000000000, -1.000000000000000000 ) ) ;
#303 = DIRECTION ( 'NONE',  ( -1.000000000000000000, 0.0000000000000000000, 0.0000000000000000000 ) ) ;
#304 = DIRECTION ( 'NONE',  ( 0.0000000000000000000, 0.0000000000000000000, -1.000000000000000000 ) ) ;
#305 = FILL_AREA_STYLE ('',( #327 ) ) ;
#306 = DIRECTION ( 'NONE',  ( 0.0000000000000000000, 0.0000000000000000000, -1.000000000000000000 ) ) ;
#307 = DIRECTION ( 'NONE',  ( 1.000000000000000000, -0.0000000000000000000, -0.0000000000000000000 ) ) ;
#308 = DIRECTION ( 'NONE',  ( 1.000000000000000000, -0.0000000000000000000, -0.0000000000000000000 ) ) ;
#309 = DIRECTION ( 'NONE',  ( 0.0000000000000000000, 0.0000000000000000000, -1.000000000000000000 ) ) ;
#310 =( LENGTH_UNIT ( ) NAMED_UNIT ( * ) SI_UNIT ( $, .METRE. ) );
#311 = CARTESIAN_POINT ( 'NONE',  ( -8.702999086355548600, 0.0000000000000000000, 0.0000000000000000000 ) ) ;
#312 =( NAMED_UNIT ( * ) PLANE_ANGLE_UNIT ( ) SI_UNIT ( $, .RADIAN. ) );
#313 = DIRECTION ( 'NONE',  ( 1.000000000000000000, 0.0000000000000000000, -0.0000000000000000000 ) ) ;
#314 = CARTESIAN_POINT ( 'NONE',  ( -5.999999999999999100, 0.0000000000000000000, 0.0000000000000000000 ) ) ;
#315 = DIRECTION ( 'NONE',  ( 0.0000000000000000000, 0.0000000000000000000, -1.000000000000000000 ) ) ;
#316 = DIRECTION ( 'NONE',  ( -1.000000000000000000, 0.0000000000000000000, 0.0000000000000000000 ) ) ;
#317 = DIRECTION ( 'NONE',  ( 0.0000000000000000000, 0.0000000000000000000, -1.000000000000000000 ) ) ;
#318 = DIRECTION ( 'NONE',  ( 1.000000000000000000, -0.0000000000000000000, -0.0000000000000000000 ) ) ;
#319 = DIRECTION ( 'NONE',  ( 0.0000000000000000000, 0.0000000000000000000, 1.000000000000000000 ) ) ;
#320 = CARTESIAN_POINT ( 'NONE',  ( -10.00000000000000000, 0.0000000000000000000, 0.0000000000000000000 ) ) ;
#321 = DIRECTION ( 'NONE',  ( 0.0000000000000000000, 0.0000000000000000000, 1.000000000000000000 ) ) ;
#322 = DIRECTION ( 'NONE',  ( 1.000000000000000000, -0.0000000000000000000, -0.0000000000000000000 ) ) ;
#323 = DIRECTION ( 'NONE',  ( 1.000000000000000000, -0.0000000000000000000, -0.0000000000000000000 ) ) ;
#324 = APPLICATION_CONTEXT ( 'automotive_design' ) ;
#325 = CARTESIAN_POINT ( 'NONE',  ( -8.000000000000000000, 0.0000000000000000000, 0.0000000000000000000 ) ) ;
#326 = CARTESIAN_POINT ( 'NONE',  ( -8.682367545449000800, 0.0000000000000000000, 0.0000000000000000000 ) ) ;
#327 = FILL_AREA_STYLE_COLOUR ( '', #39 ) ;
#328 = CARTESIAN_POINT ( 'NONE',  ( -7.969000000000000300, 0.0000000000000000000, 0.0000000000000000000 ) ) ;
#329 = SURFACE_STYLE_USAGE ( .BOTH. , #253 ) ;
#330 = CARTESIAN_POINT ( 'NONE',  ( -10.00000000000000000, 0.0000000000000000000, 0.0000000000000000000 ) ) ;
#331 = CARTESIAN_POINT ( 'NONE',  ( -7.750000000000000000, 0.0000000000000000000, -0.7834999999999999700 ) ) ;
#332 = DIRECTION ( 'NONE',  ( 1.000000000000000000, -0.0000000000000000000, -0.0000000000000000000 ) ) ;
#333 = DIRECTION ( 'NONE',  ( 0.0000000000000000000, 0.0000000000000000000, -1.000000000000000000 ) ) ;
#334 = CARTESIAN_POINT ( 'NONE',  ( 1.000000000000000000, 0.0000000000000000000, 0.0000000000000000000 ) ) ;
#335 = PLANE ( 'NONE',  #181 ) ;
#336 = CARTESIAN_POINT ( 'NONE',  ( -10.00000000000000000, 0.0000000000000000000, -0.8750000000000000000 ) ) ;
#337 = CARTESIAN_POINT ( 'NONE',  ( -6.187192502624000700, 0.0000000000000000000, -0.5861397389029999700 ) ) ;
#338 = CARTESIAN_POINT ( 'NONE',  ( -7.969000000000000300, 0.0000000000000000000, -0.7835000000000000900 ) ) ;
#339 = CARTESIAN_POINT ( 'NONE',  ( -8.000000000000000000, 0.0000000000000000000, -0.8145000000000000000 ) ) ;
#340 = DIRECTION ( 'NONE',  ( 1.000000000000000000, -0.0000000000000000000, -0.0000000000000000000 ) ) ;
#341 = CARTESIAN_POINT ( 'NONE',  ( -7.212667518604999600, 0.0000000000000000000, 0.0000000000000000000 ) ) ;
#342 = CARTESIAN_POINT ( 'NONE',  ( -8.000000000000000000, 0.0000000000000000000, -0.8750000000000000000 ) ) ;
#343 = CARTESIAN_POINT ( 'NONE',  ( 1.000000000000000000, 0.0000000000000000000, -0.5000000000000000000 ) ) ;
#344 = CARTESIAN_POINT ( 'NONE',  ( -8.682367545449000800, 0.0000000000000000000, -0.7878094245229999600 ) ) ;
#345 =( NAMED_UNIT ( * ) SI_UNIT ( $, .STERADIAN. ) SOLID_ANGLE_UNIT ( ) );
#346 = CARTESIAN_POINT ( 'NONE',  ( 0.0000000000000000000, 0.0000000000000000000, 0.0000000000000000000 ) ) ;
#347 = DIRECTION ( 'NONE',  ( 0.0000000000000000000, 0.0000000000000000000, -1.000000000000000000 ) ) ;
#348 =( NAMED_UNIT ( * ) SI_UNIT ( $, .STERADIAN. ) SOLID_ANGLE_UNIT ( ) );
#349 = APPLICATION_PROTOCOL_DEFINITION ( 'draft international standard', 'automotive_design', 1998, #324 ) ;
#350 = FILL_AREA_STYLE ('',( #351 ) ) ;
#351 = FILL_AREA_STYLE_COLOUR ( '', #102 ) ;
#352 = DIRECTION ( 'NONE',  ( 0.0000000000000000000, 0.0000000000000000000, -1.000000000000000000 ) ) ;
#353 = DIRECTION ( 'NONE',  ( 1.000000000000000000, -0.0000000000000000000, -0.0000000000000000000 ) ) ;
#354 = CARTESIAN_POINT ( 'NONE',  ( 1.000000000000000000, 0.0000000000000000000, 0.0000000000000000000 ) ) ;
#355 = DIRECTION ( 'NONE',  ( 0.0000000000000000000, 0.0000000000000000000, 1.000000000000000000 ) ) ;
#356 = APPLICATION_PROTOCOL_DEFINITION ( 'draft international standard', 'automotive_design', 1998, #290 ) ;
#357 = ADVANCED_BREP_SHAPE_REPRESENTATION ( 'MS2009', ( #359, #217 ), #212 ) ;
#358 = UNCERTAINTY_MEASURE_WITH_UNIT (LENGTH_MEASURE( 1.000000000000000100E-005 ), #247, 'distance_accuracy_value', 'NONE');
#359 = MANIFOLD_SOLID_BREP ( 'Revolve1', #135 ) ;
#360 = UNCERTAINTY_MEASURE_WITH_UNIT (LENGTH_MEASURE( 1.000000000000000100E-005 ), #226, 'distance_accuracy_value', 'NONE');
#361 = UNCERTAINTY_MEASURE_WITH_UNIT (LENGTH_MEASURE( 1.000000000000000100E-005 ), #269, 'distance_accuracy_value', 'NONE');
#362 = PRODUCT_DEFINITION_CONTEXT ( 'detailed design', #290, 'design' ) ;
#363 = PRODUCT_DEFINITION_SHAPE ( 'NONE', 'NONE',  #218 ) ;
ENDSEC;
END-ISO-10303-21;
