ISO-10303-21;
HEADER;
FILE_DESCRIPTION (( 'STEP AP203' ),
    '1' );
FILE_NAME ('MS2005.STEP',
    '2025-04-22T21:06:52',
    ( '' ),
    ( '' ),
    'SwSTEP 2.0',
    'SolidWorks 2023',
    '' );
FILE_SCHEMA (( 'CONFIG_CONTROL_DESIGN' ));
ENDSEC;

DATA;
#1 = CARTESIAN_POINT ( 'NONE',  ( 0.6099999999999998757, 2.038538414654513710E-16, 0.000000000000000000 ) ) ;
#2 = DIRECTION ( 'NONE',  ( 1.000000000000000000, 1.662451503328549534E-16, 0.000000000000000000 ) ) ;
#3 = AXIS2_PLACEMENT_3D ( 'NONE', #261, #342, #83 ) ;
#4 = CIRCLE ( 'NONE', #112, 0.5675000000000000044 ) ;
#5 = ADVANCED_FACE ( 'NONE', ( #59 ), #327, .F. ) ;
#6 = CARTESIAN_POINT ( 'NONE',  ( -2.977134233393016520E-18, -0.1874999999999998335, 0.000000000000000000 ) ) ;
#7 = DIRECTION ( 'NONE',  ( 1.000000000000000000, 1.662451503328549041E-16, 0.000000000000000000 ) ) ;
#8 = CC_DESIGN_DATE_AND_TIME_ASSIGNMENT ( #307, #339, ( #166 ) ) ;
#9 = CALENDAR_DATE ( 2025, 22, 4 ) ;
#10 = AXIS2_PLACEMENT_3D ( 'NONE', #17, #262, #21 ) ;
#11 = APPROVAL_DATE_TIME ( #363, #323 ) ;
#12 = PERSON_AND_ORGANIZATION ( #169, #246 ) ;
#13 = LOCAL_TIME ( 14, 6, 52.00000000000000000, #182 ) ;
#14 = EDGE_CURVE ( 'NONE', #131, #48, #97, .T. ) ;
#15 = MECHANICAL_CONTEXT ( 'NONE', #187, 'mechanical' ) ;
#16 = ORIENTED_EDGE ( 'NONE', *, *, #38, .T. ) ;
#17 = CARTESIAN_POINT ( 'NONE',  ( -3.414809992080330256E-17, 1.024442997624098707E-16, 0.000000000000000000 ) ) ;
#18 = PRODUCT ( 'MS2005', 'MS2005', '', ( #15 ) ) ;
#19 = ORIENTED_EDGE ( 'NONE', *, *, #377, .T. ) ;
#20 = EDGE_CURVE ( 'NONE', #369, #79, #128, .T. ) ;
#21 = DIRECTION ( 'NONE',  ( -1.000000000000000000, -1.662451503328549287E-16, 0.000000000000000000 ) ) ;
#22 = CIRCLE ( 'NONE', #73, 0.7500000000000001110 ) ;
#23 = LINE ( 'NONE', #351, #218 ) ;
#24 = ORIENTED_EDGE ( 'NONE', *, *, #338, .T. ) ;
#25 = LINE ( 'NONE', #311, #189 ) ;
#26 = EDGE_CURVE ( 'NONE', #235, #319, #232, .T. ) ;
#27 = ORIENTED_EDGE ( 'NONE', *, *, #188, .T. ) ;
#28 = UNCERTAINTY_MEASURE_WITH_UNIT (LENGTH_MEASURE( 1.000000000000000082E-05 ), #173, 'distance_accuracy_value', 'NONE');
#29 = CARTESIAN_POINT ( 'NONE',  ( -0.5675000000000000044, -0.1874999999999999445, 6.949870585161230702E-17 ) ) ;
#30 = ORIENTED_EDGE ( 'NONE', *, *, #44, .F. ) ;
#31 = CIRCLE ( 'NONE', #111, 0.6999999999999999556 ) ;
#32 = CARTESIAN_POINT ( 'NONE',  ( -3.414809992080330256E-17, 1.024442997624098707E-16, 0.000000000000000000 ) ) ;
#33 = DIRECTION ( 'NONE',  ( 1.000000000000000000, 1.805185898897090168E-16, 0.000000000000000000 ) ) ;
#34 = DIRECTION ( 'NONE',  ( 1.662451503328549287E-16, -1.000000000000000000, -0.000000000000000000 ) ) ;
#35 = DIRECTION ( 'NONE',  ( 1.000000000000000000, 1.662451503328549041E-16, 0.000000000000000000 ) ) ;
#36 = LOCAL_TIME ( 14, 6, 52.00000000000000000, #336 ) ;
#37 = CARTESIAN_POINT ( 'NONE',  ( -6.531906560821360939E-17, 0.1875000000000001388, 0.000000000000000000 ) ) ;
#38 = EDGE_CURVE ( 'NONE', #293, #46, #278, .T. ) ;
#39 = CALENDAR_DATE ( 2025, 22, 4 ) ;
#40 = PERSON_AND_ORGANIZATION_ROLE ( 'design_supplier' ) ;
#41 = DATE_AND_TIME ( #95, #13 ) ;
#42 = AXIS2_PLACEMENT_3D ( 'NONE', #65, #91, #356 ) ;
#43 = EDGE_LOOP ( 'NONE', ( #254, #367, #233, #374 ) ) ;
#44 = EDGE_CURVE ( 'NONE', #319, #235, #4, .T. ) ;
#45 = DIRECTION ( 'NONE',  ( 1.662451503328549287E-16, -1.000000000000000000, -0.000000000000000000 ) ) ;
#46 = VERTEX_POINT ( 'NONE', #170 ) ;
#47 = CARTESIAN_POINT ( 'NONE',  ( -3.414809992080330256E-17, 1.024442997624098707E-16, 0.000000000000000000 ) ) ;
#48 = VERTEX_POINT ( 'NONE', #117 ) ;
#49 = AXIS2_PLACEMENT_3D ( 'NONE', #32, #208, #204 ) ;
#50 = CONICAL_SURFACE ( 'NONE', #3, 0.5675000000000000044, 0.6151862381119735934 ) ;
#51 = DIRECTION ( 'NONE',  ( 1.000000000000000000, 1.679414750203440859E-16, 0.000000000000000000 ) ) ;
#52 = CARTESIAN_POINT ( 'NONE',  ( 0.5674999999999998934, 1.967884225763050381E-16, 6.949870585161229469E-17 ) ) ;
#53 = DIRECTION ( 'NONE',  ( 1.000000000000000000, 1.805185898897090168E-16, 0.000000000000000000 ) ) ;
#54 = CARTESIAN_POINT ( 'NONE',  ( -2.977134233393012283E-18, -0.1874999999999998890, 0.000000000000000000 ) ) ;
#55 = FACE_BOUND ( 'NONE', #192, .T. ) ;
#56 = AXIS2_PLACEMENT_3D ( 'NONE', #54, #107, #109 ) ;
#57 = DIRECTION ( 'NONE',  ( 1.000000000000000000, 1.463489996605855296E-16, 0.000000000000000000 ) ) ;
#58 = ORIENTED_EDGE ( 'NONE', *, *, #82, .F. ) ;
#59 = FACE_OUTER_BOUND ( 'NONE', #43, .T. ) ;
#60 = CARTESIAN_POINT ( 'NONE',  ( 0.6999999999999999556, 0.1875000000000002776, 8.572527594031471957E-17 ) ) ;
#61 = CONICAL_SURFACE ( 'NONE', #10, 0.5675000000000000044, 0.6151862381119735934 ) ;
#62 = DIRECTION ( 'NONE',  ( 1.662451503328549287E-16, -1.000000000000000000, -0.000000000000000000 ) ) ;
#63 = AXIS2_PLACEMENT_3D ( 'NONE', #207, #122, #243 ) ;
#64 = ADVANCED_FACE ( 'NONE', ( #241 ), #271, .F. ) ;
#65 = CARTESIAN_POINT ( 'NONE',  ( -0.6099999999999999867, -2.430969581905375392E-18, 0.000000000000000000 ) ) ;
#66 = APPROVAL_ROLE ( '' ) ;
#67 = DATE_AND_TIME ( #216, #127 ) ;
#68 = CIRCLE ( 'NONE', #286, 0.7500000000000001110 ) ;
#69 = AXIS2_PLACEMENT_3D ( 'NONE', #137, #340, #225 ) ;
#70 = APPROVAL_STATUS ( 'not_yet_approved' ) ;
#71 = APPROVAL_ROLE ( '' ) ;
#72 = ADVANCED_FACE ( 'NONE', ( #55, #177 ), #92, .F. ) ;
#73 = AXIS2_PLACEMENT_3D ( 'NONE', #379, #259, #292 ) ;
#74 = CARTESIAN_POINT ( 'NONE',  ( -3.414809992080330256E-17, 1.024442997624098707E-16, 0.000000000000000000 ) ) ;
#75 = VERTEX_POINT ( 'NONE', #60 ) ;
#76 = DIRECTION ( 'NONE',  ( 1.662451503328549287E-16, -1.000000000000000000, -0.000000000000000000 ) ) ;
#77 = ORIENTED_EDGE ( 'NONE', *, *, #199, .T. ) ;
#78 = CARTESIAN_POINT ( 'NONE',  ( 0.7500000000000001110, 0.1875000000000002776, 0.000000000000000000 ) ) ;
#79 = VERTEX_POINT ( 'NONE', #167 ) ;
#80 = SECURITY_CLASSIFICATION ( '', '', #130 ) ;
#81 = AXIS2_PLACEMENT_3D ( 'NONE', #6, #34, #33 ) ;
#82 = EDGE_CURVE ( 'NONE', #46, #75, #348, .T. ) ;
#83 = DIRECTION ( 'NONE',  ( -1.000000000000000000, -1.662451503328549287E-16, 0.000000000000000000 ) ) ;
#84 = EDGE_LOOP ( 'NONE', ( #77, #226 ) ) ;
#85 = DIRECTION ( 'NONE',  ( 1.662451503328549287E-16, -1.000000000000000000, -0.000000000000000000 ) ) ;
#86 = ORIENTED_EDGE ( 'NONE', *, *, #138, .F. ) ;
#87 = DIRECTION ( 'NONE',  ( -0.5771106266233808624, 0.8166659810708222222, 0.000000000000000000 ) ) ;
#88 = ORIENTED_EDGE ( 'NONE', *, *, #316, .F. ) ;
#89 = DIRECTION ( 'NONE',  ( 1.000000000000000000, 1.463489996605855296E-16, 0.000000000000000000 ) ) ;
#90 = CARTESIAN_POINT ( 'NONE',  ( -2.977134233393016520E-18, -0.1874999999999998335, 0.000000000000000000 ) ) ;
#91 = DIRECTION ( 'NONE',  ( -1.662451503328549287E-16, 1.000000000000000000, 0.000000000000000000 ) ) ;
#92 = PLANE ( 'NONE',  #304 ) ;
#93 = ADVANCED_FACE ( 'NONE', ( #320 ), #168, .T. ) ;
#94 = CARTESIAN_POINT ( 'NONE',  ( -0.7500000000000001110, -0.2054080967320383033, 9.184850993605150903E-17 ) ) ;
#95 = CALENDAR_DATE ( 2025, 22, 4 ) ;
#96 = LOCAL_TIME ( 14, 6, 52.00000000000000000, #249 ) ;
#97 = CIRCLE ( 'NONE', #317, 0.6099999999999999867 ) ;
#98 = PERSON_AND_ORGANIZATION ( #169, #246 ) ;
#99 = APPROVAL_ROLE ( '' ) ;
#100 = EDGE_CURVE ( 'NONE', #293, #235, #23, .T. ) ;
#101 = ORIENTED_EDGE ( 'NONE', *, *, #316, .T. ) ;
#102 = CARTESIAN_POINT ( 'NONE',  ( 0.000000000000000000, -0.2054080967320381645, 0.000000000000000000 ) ) ;
#103 = VECTOR ( 'NONE', #272, 39.37007874015748143 ) ;
#104 = ORIENTED_EDGE ( 'NONE', *, *, #138, .T. ) ;
#105 = CYLINDRICAL_SURFACE ( 'NONE', #120, 0.7500000000000001110 ) ;
#106 = EDGE_LOOP ( 'NONE', ( #321, #269, #346, #257 ) ) ;
#107 = DIRECTION ( 'NONE',  ( 1.662451503328549287E-16, -1.000000000000000000, -0.000000000000000000 ) ) ;
#108 = ORIENTED_EDGE ( 'NONE', *, *, #282, .T. ) ;
#109 = DIRECTION ( 'NONE',  ( 1.000000000000000000, 1.679414750203440612E-16, 0.000000000000000000 ) ) ;
#110 = ORIENTED_EDGE ( 'NONE', *, *, #344, .T. ) ;
#111 = AXIS2_PLACEMENT_3D ( 'NONE', #37, #270, #89 ) ;
#112 = AXIS2_PLACEMENT_3D ( 'NONE', #90, #119, #53 ) ;
#113 = DIRECTION ( 'NONE',  ( 1.662451503328549287E-16, -1.000000000000000000, -0.000000000000000000 ) ) ;
#114 = DIRECTION ( 'NONE',  ( -1.000000000000000000, -1.662451503328549287E-16, 0.000000000000000000 ) ) ;
#115 = CC_DESIGN_DATE_AND_TIME_ASSIGNMENT ( #67, #364, ( #80 ) ) ;
#116 = LINE ( 'NONE', #94, #217 ) ;
#117 = CARTESIAN_POINT ( 'NONE',  ( 0.6099999999999999867, -0.1874999999999997780, 0.000000000000000000 ) ) ;
#118 = PRODUCT_DEFINITION_SHAPE ( 'NONE', 'NONE',  #166 ) ;
#119 = DIRECTION ( 'NONE',  ( 1.662451503328549287E-16, -1.000000000000000000, -0.000000000000000000 ) ) ;
#120 = AXIS2_PLACEMENT_3D ( 'NONE', #290, #165, #194 ) ;
#121 = DIRECTION ( 'NONE',  ( 1.662451503328549287E-16, -1.000000000000000000, -0.000000000000000000 ) ) ;
#122 = DIRECTION ( 'NONE',  ( 1.662451503328549287E-16, -1.000000000000000000, -0.000000000000000000 ) ) ;
#123 = APPLICATION_PROTOCOL_DEFINITION ( 'international standard', 'config_control_design', 1994, #187 ) ;
#124 = PERSON_AND_ORGANIZATION ( #169, #246 ) ;
#125 = APPROVAL ( #70, 'UNSPECIFIED' ) ;
#126 = PERSON_AND_ORGANIZATION ( #169, #246 ) ;
#127 = LOCAL_TIME ( 14, 6, 52.00000000000000000, #247 ) ;
#128 = CIRCLE ( 'NONE', #151, 0.7500000000000001110 ) ;
#129 = ADVANCED_FACE ( 'NONE', ( #196 ), #223, .T. ) ;
#130 = SECURITY_CLASSIFICATION_LEVEL ( 'unclassified' ) ;
#131 = VERTEX_POINT ( 'NONE', #345 ) ;
#132 = CARTESIAN_POINT ( 'NONE',  ( -0.6100000000000000977, 1.034758059368367455E-18, 7.470345474798855279E-17 ) ) ;
#133 = ORIENTED_EDGE ( 'NONE', *, *, #229, .T. ) ;
#134 = CARTESIAN_POINT ( 'NONE',  ( -6.531906560821360939E-17, 0.1875000000000001388, 0.000000000000000000 ) ) ;
#135 = AXIS2_PLACEMENT_3D ( 'NONE', #47, #85, #371 ) ;
#136 = ORIENTED_EDGE ( 'NONE', *, *, #193, .F. ) ;
#137 = CARTESIAN_POINT ( 'NONE',  ( 0.000000000000000000, -0.2054080967320381645, 0.000000000000000000 ) ) ;
#138 = EDGE_CURVE ( 'NONE', #266, #131, #164, .T. ) ;
#139 = EDGE_LOOP ( 'NONE', ( #86, #133, #110, #143 ) ) ;
#140 = DIRECTION ( 'NONE',  ( 1.662451503328549287E-16, -1.000000000000000000, -0.000000000000000000 ) ) ;
#141 = VERTEX_POINT ( 'NONE', #78 ) ;
#142 = FACE_BOUND ( 'NONE', #314, .T. ) ;
#143 = ORIENTED_EDGE ( 'NONE', *, *, #14, .F. ) ;
#144 = ADVANCED_FACE ( 'NONE', ( #230 ), #50, .F. ) ;
#145 = DIRECTION ( 'NONE',  ( 1.000000000000000000, 1.679414750203440612E-16, 0.000000000000000000 ) ) ;
#146 = CARTESIAN_POINT ( 'NONE',  ( 0.6099999999999998757, -0.2054080967320380535, 0.000000000000000000 ) ) ;
#147 = ORIENTED_EDGE ( 'NONE', *, *, #100, .T. ) ;
#148 =( NAMED_UNIT ( * ) PLANE_ANGLE_UNIT ( ) SI_UNIT ( $, .RADIAN. ) );
#149 = DIRECTION ( 'NONE',  ( 1.662451503328549287E-16, -1.000000000000000000, -0.000000000000000000 ) ) ;
#150 = CIRCLE ( 'NONE', #56, 0.6099999999999999867 ) ;
#151 = AXIS2_PLACEMENT_3D ( 'NONE', #267, #301, #35 ) ;
#152 = ADVANCED_FACE ( 'NONE', ( #234 ), #105, .T. ) ;
#153 = EDGE_CURVE ( 'NONE', #141, #281, #222, .T. ) ;
#154 = CC_DESIGN_SECURITY_CLASSIFICATION ( #80, ( #365 ) ) ;
#155 = PERSON_AND_ORGANIZATION ( #169, #246 ) ;
#156 = CALENDAR_DATE ( 2025, 22, 4 ) ;
#157 = EDGE_CURVE ( 'NONE', #46, #319, #25, .T. ) ;
#158 = CIRCLE ( 'NONE', #240, 0.6999999999999999556 ) ;
#159 = ORIENTED_EDGE ( 'NONE', *, *, #255, .F. ) ;
#160 = DIRECTION ( 'NONE',  ( 1.000000000000000000, 1.662451503328549287E-16, 0.000000000000000000 ) ) ;
#161 = EDGE_LOOP ( 'NONE', ( #58, #190, #101, #341 ) ) ;
#162 = CARTESIAN_POINT ( 'NONE',  ( 0.7500000000000001110, -0.2054080967320380258, 0.000000000000000000 ) ) ;
#163 = ORIENTED_EDGE ( 'NONE', *, *, #82, .T. ) ;
#164 = LINE ( 'NONE', #191, #287 ) ;
#165 = DIRECTION ( 'NONE',  ( 1.662451503328549287E-16, -1.000000000000000000, -0.000000000000000000 ) ) ;
#166 = PRODUCT_DEFINITION ( 'UNKNOWN', '', #365, #349 ) ;
#167 = CARTESIAN_POINT ( 'NONE',  ( -0.7500000000000001110, -2.223956298723133200E-17, 9.184850993605150903E-17 ) ) ;
#168 = CYLINDRICAL_SURFACE ( 'NONE', #184, 0.6099999999999998757 ) ;
#169 = PERSON ( 'UNSPECIFIED', 'UNSPECIFIED', 'UNSPECIFIED', ('UNSPECIFIED'), ('UNSPECIFIED'), ('UNSPECIFIED') ) ;
#170 = CARTESIAN_POINT ( 'NONE',  ( 0.5675000000000000044, 1.967884225763050628E-16, 7.761199089596350713E-17 ) ) ;
#171 = FACE_OUTER_BOUND ( 'NONE', #238, .T. ) ;
#172 = CARTESIAN_POINT ( 'NONE',  ( 0.000000000000000000, -0.2054080967320381645, 0.000000000000000000 ) ) ;
#173 =( CONVERSION_BASED_UNIT ( 'INCH', #358 ) LENGTH_UNIT ( ) NAMED_UNIT ( #236 ) );
#174 = DIRECTION ( 'NONE',  ( 1.662451503328549287E-16, -1.000000000000000000, -0.000000000000000000 ) ) ;
#175 = CC_DESIGN_PERSON_AND_ORGANIZATION_ASSIGNMENT ( #337, #215, ( #365 ) ) ;
#176 =( NAMED_UNIT ( * ) SI_UNIT ( $, .STERADIAN. ) SOLID_ANGLE_UNIT ( ) );
#177 = FACE_OUTER_BOUND ( 'NONE', #84, .T. ) ;
#178 = AXIS2_PLACEMENT_3D ( 'NONE', #134, #313, #318 ) ;
#179 = CARTESIAN_POINT ( 'NONE',  ( -0.5675000000000000044, 8.100176948514706355E-18, 0.000000000000000000 ) ) ;
#180 = DIRECTION ( 'NONE',  ( 0.000000000000000000, 0.000000000000000000, 1.000000000000000000 ) ) ;
#181 = CC_DESIGN_PERSON_AND_ORGANIZATION_ASSIGNMENT ( #221, #253, ( #80 ) ) ;
#182 = COORDINATED_UNIVERSAL_TIME_OFFSET ( 8, 0, .BEHIND. ) ;
#183 = CIRCLE ( 'NONE', #49, 0.5675000000000000044 ) ;
#184 = AXIS2_PLACEMENT_3D ( 'NONE', #102, #45, #51 ) ;
#185 = DIRECTION ( 'NONE',  ( 1.000000000000000000, 0.000000000000000000, 0.000000000000000000 ) ) ;
#186 = SHAPE_DEFINITION_REPRESENTATION ( #118, #280 ) ;
#187 = APPLICATION_CONTEXT ( 'configuration controlled 3d designs of mechanical parts and assemblies' ) ;
#188 = EDGE_CURVE ( 'NONE', #283, #266, #295, .T. ) ;
#189 = VECTOR ( 'NONE', #373, 39.37007874015748143 ) ;
#190 = ORIENTED_EDGE ( 'NONE', *, *, #331, .T. ) ;
#191 = CARTESIAN_POINT ( 'NONE',  ( -0.6099999999999998757, -0.2054080967320382756, 7.470345474798854046E-17 ) ) ;
#192 = EDGE_LOOP ( 'NONE', ( #30, #291 ) ) ;
#193 = EDGE_CURVE ( 'NONE', #281, #141, #22, .T. ) ;
#194 = DIRECTION ( 'NONE',  ( 1.000000000000000000, 1.821231995776175232E-16, 0.000000000000000000 ) ) ;
#195 = ORIENTED_EDGE ( 'NONE', *, *, #157, .F. ) ;
#196 = FACE_OUTER_BOUND ( 'NONE', #106, .T. ) ;
#197 = CC_DESIGN_APPROVAL ( #350, ( #166 ) ) ;
#198 = ORIENTED_EDGE ( 'NONE', *, *, #188, .F. ) ;
#199 = EDGE_CURVE ( 'NONE', #48, #131, #150, .T. ) ;
#200 = FACE_OUTER_BOUND ( 'NONE', #354, .T. ) ;
#201 = ORIENTED_EDGE ( 'NONE', *, *, #153, .T. ) ;
#202 = DIRECTION ( 'NONE',  ( 1.662451503328549287E-16, -1.000000000000000000, -0.000000000000000000 ) ) ;
#203 = EDGE_LOOP ( 'NONE', ( #27, #104, #260, #296 ) ) ;
#204 = DIRECTION ( 'NONE',  ( 1.000000000000000000, 1.662451503328549534E-16, 0.000000000000000000 ) ) ;
#205 = DIRECTION ( 'NONE',  ( 1.000000000000000000, 1.805185898897090168E-16, 0.000000000000000000 ) ) ;
#206 = CARTESIAN_POINT ( 'NONE',  ( -3.414809992080330256E-17, 1.024442997624098707E-16, 0.000000000000000000 ) ) ;
#207 = CARTESIAN_POINT ( 'NONE',  ( 0.000000000000000000, -0.2054080967320381645, 0.000000000000000000 ) ) ;
#208 = DIRECTION ( 'NONE',  ( 1.662451503328549287E-16, -1.000000000000000000, -0.000000000000000000 ) ) ;
#209 = CARTESIAN_POINT ( 'NONE',  ( -0.5675000000000000044, -0.1874999999999999722, 0.000000000000000000 ) ) ;
#210 = APPLICATION_CONTEXT ( 'configuration controlled 3d designs of mechanical parts and assemblies' ) ;
#211 = CARTESIAN_POINT ( 'NONE',  ( -0.6999999999999999556, 0.1875000000000000278, 0.000000000000000000 ) ) ;
#212 = CIRCLE ( 'NONE', #135, 0.6099999999999998757 ) ;
#213 = CARTESIAN_POINT ( 'NONE',  ( 0.000000000000000000, -0.2054080967320381645, 0.000000000000000000 ) ) ;
#214 = ADVANCED_FACE ( 'NONE', ( #200 ), #61, .F. ) ;
#215 = PERSON_AND_ORGANIZATION_ROLE ( 'creator' ) ;
#216 = CALENDAR_DATE ( 2025, 22, 4 ) ;
#217 = VECTOR ( 'NONE', #62, 39.37007874015748143 ) ;
#218 = VECTOR ( 'NONE', #284, 39.37007874015748143 ) ;
#219 = CARTESIAN_POINT ( 'NONE',  ( 0.000000000000000000, 0.000000000000000000, 0.000000000000000000 ) ) ;
#220 = PERSON_AND_ORGANIZATION ( #169, #246 ) ;
#221 = PERSON_AND_ORGANIZATION ( #169, #246 ) ;
#222 = CIRCLE ( 'NONE', #178, 0.7500000000000001110 ) ;
#223 = CYLINDRICAL_SURFACE ( 'NONE', #69, 0.7500000000000001110 ) ;
#224 = PRODUCT_RELATED_PRODUCT_CATEGORY ( 'detail', '', ( #18 ) ) ;
#225 = DIRECTION ( 'NONE',  ( 1.000000000000000000, 1.821231995776175232E-16, 0.000000000000000000 ) ) ;
#226 = ORIENTED_EDGE ( 'NONE', *, *, #14, .T. ) ;
#227 = LINE ( 'NONE', #162, #335 ) ;
#228 = EDGE_LOOP ( 'NONE', ( #324, #136 ) ) ;
#229 = EDGE_CURVE ( 'NONE', #266, #283, #212, .T. ) ;
#230 = FACE_OUTER_BOUND ( 'NONE', #161, .T. ) ;
#231 = APPROVAL_PERSON_ORGANIZATION ( #155, #125, #71 ) ;
#232 = CIRCLE ( 'NONE', #81, 0.5675000000000000044 ) ;
#233 = ORIENTED_EDGE ( 'NONE', *, *, #157, .T. ) ;
#234 = FACE_OUTER_BOUND ( 'NONE', #359, .T. ) ;
#235 = VERTEX_POINT ( 'NONE', #29 ) ;
#236 = DIMENSIONAL_EXPONENTS ( 1.000000000000000000, 0.000000000000000000, 0.000000000000000000, 0.000000000000000000, 0.000000000000000000, 0.000000000000000000, 0.000000000000000000 ) ;
#237 = CARTESIAN_POINT ( 'NONE',  ( -0.5675000000000001155, 8.100176948514690947E-18, 0.000000000000000000 ) ) ;
#238 = EDGE_LOOP ( 'NONE', ( #310, #19 ) ) ;
#239 = DIRECTION ( 'NONE',  ( 1.000000000000000000, 1.679414750203440859E-16, 0.000000000000000000 ) ) ;
#240 = AXIS2_PLACEMENT_3D ( 'NONE', #298, #300, #57 ) ;
#241 = FACE_OUTER_BOUND ( 'NONE', #352, .T. ) ;
#242 =( LENGTH_UNIT ( ) NAMED_UNIT ( * ) SI_UNIT ( $, .METRE. ) );
#243 = DIRECTION ( 'NONE',  ( 1.000000000000000000, 1.805185898897090168E-16, 0.000000000000000000 ) ) ;
#244 = CYLINDRICAL_SURFACE ( 'NONE', #273, 0.6099999999999998757 ) ;
#245 = CC_DESIGN_PERSON_AND_ORGANIZATION_ASSIGNMENT ( #126, #366, ( #18 ) ) ;
#246 = ORGANIZATION ( 'UNSPECIFIED', 'UNSPECIFIED', '' ) ;
#247 = COORDINATED_UNIVERSAL_TIME_OFFSET ( 8, 0, .BEHIND. ) ;
#248 = APPLICATION_PROTOCOL_DEFINITION ( 'international standard', 'config_control_design', 1994, #210 ) ;
#249 = COORDINATED_UNIVERSAL_TIME_OFFSET ( 8, 0, .BEHIND. ) ;
#250 = CC_DESIGN_PERSON_AND_ORGANIZATION_ASSIGNMENT ( #220, #306, ( #166 ) ) ;
#251 = CC_DESIGN_APPROVAL ( #323, ( #365 ) ) ;
#252 = DATE_AND_TIME ( #39, #361 ) ;
#253 = PERSON_AND_ORGANIZATION_ROLE ( 'classification_officer' ) ;
#254 = ORIENTED_EDGE ( 'NONE', *, *, #100, .F. ) ;
#255 = EDGE_CURVE ( 'NONE', #141, #369, #227, .T. ) ;
#256 = FACE_OUTER_BOUND ( 'NONE', #139, .T. ) ;
#257 = ORIENTED_EDGE ( 'NONE', *, *, #377, .F. ) ;
#258 = AXIS2_PLACEMENT_3D ( 'NONE', #74, #140, #160 ) ;
#259 = DIRECTION ( 'NONE',  ( 1.662451503328549287E-16, -1.000000000000000000, -0.000000000000000000 ) ) ;
#260 = ORIENTED_EDGE ( 'NONE', *, *, #199, .F. ) ;
#261 = CARTESIAN_POINT ( 'NONE',  ( -3.414809992080330256E-17, 1.024442997624098707E-16, 0.000000000000000000 ) ) ;
#262 = DIRECTION ( 'NONE',  ( -1.662451503328549287E-16, 1.000000000000000000, 0.000000000000000000 ) ) ;
#263 = ADVANCED_FACE ( 'NONE', ( #288, #142 ), #375, .F. ) ;
#264 = CARTESIAN_POINT ( 'NONE',  ( -0.6999999999999999556, 0.1874999999999999722, 0.000000000000000000 ) ) ;
#265 = VECTOR ( 'NONE', #87, 39.37007874015748854 ) ;
#266 = VERTEX_POINT ( 'NONE', #132 ) ;
#267 = CARTESIAN_POINT ( 'NONE',  ( -3.414809992080330256E-17, 1.024442997624098707E-16, 0.000000000000000000 ) ) ;
#268 = ADVANCED_FACE ( 'NONE', ( #256 ), #244, .T. ) ;
#269 = ORIENTED_EDGE ( 'NONE', *, *, #193, .T. ) ;
#270 = DIRECTION ( 'NONE',  ( 1.662451503328549287E-16, -1.000000000000000000, -0.000000000000000000 ) ) ;
#271 = CYLINDRICAL_SURFACE ( 'NONE', #63, 0.5675000000000000044 ) ;
#272 = DIRECTION ( 'NONE',  ( 1.662451503328549287E-16, -1.000000000000000000, -0.000000000000000000 ) ) ;
#273 = AXIS2_PLACEMENT_3D ( 'NONE', #213, #381, #239 ) ;
#274 = COORDINATED_UNIVERSAL_TIME_OFFSET ( 8, 0, .BEHIND. ) ;
#275 = APPROVAL_DATE_TIME ( #252, #125 ) ;
#276 = MANIFOLD_SOLID_BREP ( 'Revolve1', #378 ) ;
#277 = APPROVAL_PERSON_ORGANIZATION ( #98, #350, #66 ) ;
#278 = CIRCLE ( 'NONE', #347, 0.5675000000000000044 ) ;
#279 = APPROVAL_STATUS ( 'not_yet_approved' ) ;
#280 = ADVANCED_BREP_SHAPE_REPRESENTATION ( 'MS2005', ( #276, #370 ), #315 ) ;
#281 = VERTEX_POINT ( 'NONE', #360 ) ;
#282 = EDGE_CURVE ( 'NONE', #281, #79, #116, .T. ) ;
#283 = VERTEX_POINT ( 'NONE', #1 ) ;
#284 = DIRECTION ( 'NONE',  ( 1.662451503328549287E-16, -1.000000000000000000, -0.000000000000000000 ) ) ;
#285 = VERTEX_POINT ( 'NONE', #211 ) ;
#286 = AXIS2_PLACEMENT_3D ( 'NONE', #206, #121, #7 ) ;
#287 = VECTOR ( 'NONE', #76, 39.37007874015748143 ) ;
#288 = FACE_OUTER_BOUND ( 'NONE', #228, .T. ) ;
#289 = ORIENTED_EDGE ( 'NONE', *, *, #38, .F. ) ;
#290 = CARTESIAN_POINT ( 'NONE',  ( 0.000000000000000000, -0.2054080967320381645, 0.000000000000000000 ) ) ;
#291 = ORIENTED_EDGE ( 'NONE', *, *, #26, .F. ) ;
#292 = DIRECTION ( 'NONE',  ( 1.000000000000000000, 1.821231995776175232E-16, 0.000000000000000000 ) ) ;
#293 = VERTEX_POINT ( 'NONE', #237 ) ;
#294 = LINE ( 'NONE', #179, #265 ) ;
#295 = CIRCLE ( 'NONE', #258, 0.6099999999999998757 ) ;
#296 = ORIENTED_EDGE ( 'NONE', *, *, #344, .F. ) ;
#297 = CC_DESIGN_PERSON_AND_ORGANIZATION_ASSIGNMENT ( #12, #40, ( #365 ) ) ;
#298 = CARTESIAN_POINT ( 'NONE',  ( -6.531906560821360939E-17, 0.1875000000000001388, 0.000000000000000000 ) ) ;
#299 = DIRECTION ( 'NONE',  ( 1.662451503328549287E-16, -1.000000000000000000, -0.000000000000000000 ) ) ;
#300 = DIRECTION ( 'NONE',  ( 1.662451503328549287E-16, -1.000000000000000000, -0.000000000000000000 ) ) ;
#301 = DIRECTION ( 'NONE',  ( 1.662451503328549287E-16, -1.000000000000000000, -0.000000000000000000 ) ) ;
#302 = ADVANCED_FACE ( 'NONE', ( #328, #171 ), #332, .F. ) ;
#303 = APPROVAL_PERSON_ORGANIZATION ( #124, #323, #99 ) ;
#304 = AXIS2_PLACEMENT_3D ( 'NONE', #209, #330, #114 ) ;
#305 = CARTESIAN_POINT ( 'NONE',  ( 0.5675000000000000044, -0.1874999999999997502, 0.000000000000000000 ) ) ;
#306 = PERSON_AND_ORGANIZATION_ROLE ( 'creator' ) ;
#307 = DATE_AND_TIME ( #9, #96 ) ;
#308 = AXIS2_PLACEMENT_3D ( 'NONE', #172, #299, #205 ) ;
#309 = APPROVAL_DATE_TIME ( #41, #350 ) ;
#310 = ORIENTED_EDGE ( 'NONE', *, *, #20, .T. ) ;
#311 = CARTESIAN_POINT ( 'NONE',  ( 0.5675000000000000044, -0.2054080967320380535, 0.000000000000000000 ) ) ;
#312 = ORIENTED_EDGE ( 'NONE', *, *, #362, .T. ) ;
#313 = DIRECTION ( 'NONE',  ( 1.662451503328549287E-16, -1.000000000000000000, -0.000000000000000000 ) ) ;
#314 = EDGE_LOOP ( 'NONE', ( #312, #24 ) ) ;
#315 =( GEOMETRIC_REPRESENTATION_CONTEXT ( 3 ) GLOBAL_UNCERTAINTY_ASSIGNED_CONTEXT ( ( #28 ) ) GLOBAL_UNIT_ASSIGNED_CONTEXT ( ( #173, #148, #176 ) ) REPRESENTATION_CONTEXT ( 'NONE', 'WORKASPACE' ) );
#316 = EDGE_CURVE ( 'NONE', #293, #285, #294, .T. ) ;
#317 = AXIS2_PLACEMENT_3D ( 'NONE', #380, #174, #145 ) ;
#318 = DIRECTION ( 'NONE',  ( 1.000000000000000000, 1.821231995776175232E-16, 0.000000000000000000 ) ) ;
#319 = VERTEX_POINT ( 'NONE', #305 ) ;
#320 = FACE_OUTER_BOUND ( 'NONE', #203, .T. ) ;
#321 = ORIENTED_EDGE ( 'NONE', *, *, #282, .F. ) ;
#322 = DIRECTION ( 'NONE',  ( 1.000000000000000000, 1.662451503328549287E-16, 0.000000000000000000 ) ) ;
#323 = APPROVAL ( #279, 'UNSPECIFIED' ) ;
#324 = ORIENTED_EDGE ( 'NONE', *, *, #153, .F. ) ;
#325 = LINE ( 'NONE', #146, #103 ) ;
#326 = CC_DESIGN_APPROVAL ( #125, ( #80 ) ) ;
#327 = CYLINDRICAL_SURFACE ( 'NONE', #308, 0.5675000000000000044 ) ;
#328 = FACE_BOUND ( 'NONE', #372, .T. ) ;
#329 = ORIENTED_EDGE ( 'NONE', *, *, #229, .F. ) ;
#330 = DIRECTION ( 'NONE',  ( -1.662451503328549287E-16, 1.000000000000000000, 0.000000000000000000 ) ) ;
#331 = EDGE_CURVE ( 'NONE', #46, #293, #183, .T. ) ;
#332 = PLANE ( 'NONE',  #42 ) ;
#333 = VECTOR ( 'NONE', #368, 39.37007874015748143 ) ;
#334 = APPROVAL_STATUS ( 'not_yet_approved' ) ;
#335 = VECTOR ( 'NONE', #202, 39.37007874015748143 ) ;
#336 = COORDINATED_UNIVERSAL_TIME_OFFSET ( 8, 0, .BEHIND. ) ;
#337 = PERSON_AND_ORGANIZATION ( #169, #246 ) ;
#338 = EDGE_CURVE ( 'NONE', #75, #285, #31, .T. ) ;
#339 = DATE_TIME_ROLE ( 'creation_date' ) ;
#340 = DIRECTION ( 'NONE',  ( 1.662451503328549287E-16, -1.000000000000000000, -0.000000000000000000 ) ) ;
#341 = ORIENTED_EDGE ( 'NONE', *, *, #338, .F. ) ;
#342 = DIRECTION ( 'NONE',  ( -1.662451503328549287E-16, 1.000000000000000000, 0.000000000000000000 ) ) ;
#343 = ORIENTED_EDGE ( 'NONE', *, *, #26, .T. ) ;
#344 = EDGE_CURVE ( 'NONE', #283, #48, #325, .T. ) ;
#345 = CARTESIAN_POINT ( 'NONE',  ( -0.6100000000000000977, -0.1874999999999999722, 7.470345474798855279E-17 ) ) ;
#346 = ORIENTED_EDGE ( 'NONE', *, *, #255, .T. ) ;
#347 = AXIS2_PLACEMENT_3D ( 'NONE', #357, #149, #2 ) ;
#348 = LINE ( 'NONE', #52, #333 ) ;
#349 = DESIGN_CONTEXT ( 'detailed design', #210, 'design' ) ;
#350 = APPROVAL ( #334, 'UNSPECIFIED' ) ;
#351 = CARTESIAN_POINT ( 'NONE',  ( -0.5675000000000000044, -0.2054080967320382756, 6.949870585161230702E-17 ) ) ;
#352 = EDGE_LOOP ( 'NONE', ( #289, #147, #343, #195 ) ) ;
#353 = CARTESIAN_POINT ( 'NONE',  ( 0.7500000000000001110, 2.271281625120510734E-16, 0.000000000000000000 ) ) ;
#354 = EDGE_LOOP ( 'NONE', ( #16, #163, #376, #88 ) ) ;
#355 = AXIS2_PLACEMENT_3D ( 'NONE', #264, #113, #322 ) ;
#356 = DIRECTION ( 'NONE',  ( -1.000000000000000000, -1.662451503328549287E-16, 0.000000000000000000 ) ) ;
#357 = CARTESIAN_POINT ( 'NONE',  ( -3.414809992080330256E-17, 1.024442997624098707E-16, 0.000000000000000000 ) ) ;
#358 = LENGTH_MEASURE_WITH_UNIT ( LENGTH_MEASURE( 0.02539999999999999897 ), #242 );
#359 = EDGE_LOOP ( 'NONE', ( #201, #108, #382, #159 ) ) ;
#360 = CARTESIAN_POINT ( 'NONE',  ( -0.7500000000000001110, 0.1875000000000000278, 9.184850993605150903E-17 ) ) ;
#361 = LOCAL_TIME ( 14, 6, 52.00000000000000000, #274 ) ;
#362 = EDGE_CURVE ( 'NONE', #285, #75, #158, .T. ) ;
#363 = DATE_AND_TIME ( #156, #36 ) ;
#364 = DATE_TIME_ROLE ( 'classification_date' ) ;
#365 = PRODUCT_DEFINITION_FORMATION_WITH_SPECIFIED_SOURCE ( 'ANY', '', #18, .NOT_KNOWN. ) ;
#366 = PERSON_AND_ORGANIZATION_ROLE ( 'design_owner' ) ;
#367 = ORIENTED_EDGE ( 'NONE', *, *, #331, .F. ) ;
#368 = DIRECTION ( 'NONE',  ( 0.5771106266233806403, 0.8166659810708224443, 7.067566816482465687E-17 ) ) ;
#369 = VERTEX_POINT ( 'NONE', #353 ) ;
#370 = AXIS2_PLACEMENT_3D ( 'NONE', #219, #180, #185 ) ;
#371 = DIRECTION ( 'NONE',  ( 1.000000000000000000, 1.662451503328549287E-16, 0.000000000000000000 ) ) ;
#372 = EDGE_LOOP ( 'NONE', ( #198, #329 ) ) ;
#373 = DIRECTION ( 'NONE',  ( 1.662451503328549287E-16, -1.000000000000000000, -0.000000000000000000 ) ) ;
#374 = ORIENTED_EDGE ( 'NONE', *, *, #44, .T. ) ;
#375 = PLANE ( 'NONE',  #355 ) ;
#376 = ORIENTED_EDGE ( 'NONE', *, *, #362, .F. ) ;
#377 = EDGE_CURVE ( 'NONE', #79, #369, #68, .T. ) ;
#378 = CLOSED_SHELL ( 'NONE', ( #64, #214, #152, #93, #72, #268, #302, #129, #263, #144, #5 ) ) ;
#379 = CARTESIAN_POINT ( 'NONE',  ( -6.531906560821360939E-17, 0.1875000000000001388, 0.000000000000000000 ) ) ;
#380 = CARTESIAN_POINT ( 'NONE',  ( -2.977134233393012283E-18, -0.1874999999999998890, 0.000000000000000000 ) ) ;
#381 = DIRECTION ( 'NONE',  ( 1.662451503328549287E-16, -1.000000000000000000, -0.000000000000000000 ) ) ;
#382 = ORIENTED_EDGE ( 'NONE', *, *, #20, .F. ) ;
ENDSEC;
END-ISO-10303-21;
