ISO-10303-21;
HEADER;
FILE_DESCRIPTION (( 'STEP AP203' ),
    '1' );
FILE_NAME ('MS2004.STEP',
    '2025-04-22T21:06:32',
    ( '' ),
    ( '' ),
    'SwSTEP 2.0',
    'SolidWorks 2023',
    '' );
FILE_SCHEMA (( 'CONFIG_CONTROL_DESIGN' ));
ENDSEC;

DATA;
#1 = FACE_BOUND ( 'NONE', #252, .T. ) ;
#2 = CARTESIAN_POINT ( 'NONE',  ( -0.5909999999999999698, -8.516406537432538779E-19, 0.000000000000000000 ) ) ;
#3 = DIRECTION ( 'NONE',  ( 1.662451503328549287E-16, -1.000000000000000000, -0.000000000000000000 ) ) ;
#4 =( GEOMETRIC_REPRESENTATION_CONTEXT ( 3 ) GLOBAL_UNCERTAINTY_ASSIGNED_CONTEXT ( ( #52 ) ) GLOBAL_UNIT_ASSIGNED_CONTEXT ( ( #190, #159, #370 ) ) REPRESENTATION_CONTEXT ( 'NONE', 'WORKASPACE' ) );
#5 = EDGE_CURVE ( 'NONE', #133, #345, #45, .T. ) ;
#6 = FACE_OUTER_BOUND ( 'NONE', #285, .T. ) ;
#7 = CARTESIAN_POINT ( 'NONE',  ( 0.5909999999999999698, -0.1874999999999997502, 0.000000000000000000 ) ) ;
#8 = LINE ( 'NONE', #95, #161 ) ;
#9 = APPROVAL_PERSON_ORGANIZATION ( #164, #374, #108 ) ;
#10 = DIRECTION ( 'NONE',  ( 1.662451503328549287E-16, -1.000000000000000000, -0.000000000000000000 ) ) ;
#11 = CARTESIAN_POINT ( 'NONE',  ( 0.000000000000000000, -0.2054080967320381645, 0.000000000000000000 ) ) ;
#12 = DIRECTION ( 'NONE',  ( 1.000000000000000000, 1.805185898897090168E-16, 0.000000000000000000 ) ) ;
#13 = CONICAL_SURFACE ( 'NONE', #77, 0.5675000000000000044, 0.6151862381119735934 ) ;
#14 = PERSON_AND_ORGANIZATION_ROLE ( 'classification_officer' ) ;
#15 = CC_DESIGN_DATE_AND_TIME_ASSIGNMENT ( #100, #284, ( #106 ) ) ;
#16 = CALENDAR_DATE ( 2025, 22, 4 ) ;
#17 = ORIENTED_EDGE ( 'NONE', *, *, #248, .T. ) ;
#18 = APPROVAL_ROLE ( '' ) ;
#19 = CARTESIAN_POINT ( 'NONE',  ( 0.7500000000000001110, -0.2054080967320380258, 0.000000000000000000 ) ) ;
#20 = FACE_BOUND ( 'NONE', #371, .T. ) ;
#21 = APPROVAL_DATE_TIME ( #102, #374 ) ;
#22 = VERTEX_POINT ( 'NONE', #344 ) ;
#23 = ORIENTED_EDGE ( 'NONE', *, *, #168, .F. ) ;
#24 = EDGE_CURVE ( 'NONE', #253, #275, #76, .T. ) ;
#25 = AXIS2_PLACEMENT_3D ( 'NONE', #290, #146, #107 ) ;
#26 = FACE_OUTER_BOUND ( 'NONE', #158, .T. ) ;
#27 = CARTESIAN_POINT ( 'NONE',  ( -3.414809992080330256E-17, 1.024442997624098707E-16, 0.000000000000000000 ) ) ;
#28 = EDGE_CURVE ( 'NONE', #343, #345, #280, .T. ) ;
#29 = DIRECTION ( 'NONE',  ( -1.662451503328549287E-16, 1.000000000000000000, 0.000000000000000000 ) ) ;
#30 = DIRECTION ( 'NONE',  ( 1.000000000000000000, 1.733406087350420990E-16, 0.000000000000000000 ) ) ;
#31 = CIRCLE ( 'NONE', #214, 0.5909999999999999698 ) ;
#32 = DIRECTION ( 'NONE',  ( 1.662451503328549287E-16, -1.000000000000000000, -0.000000000000000000 ) ) ;
#33 = DIRECTION ( 'NONE',  ( 1.662451503328549287E-16, -1.000000000000000000, -0.000000000000000000 ) ) ;
#34 = CARTESIAN_POINT ( 'NONE',  ( -2.977134233393016520E-18, -0.1874999999999998335, 0.000000000000000000 ) ) ;
#35 = AXIS2_PLACEMENT_3D ( 'NONE', #300, #32, #149 ) ;
#36 = CC_DESIGN_PERSON_AND_ORGANIZATION_ASSIGNMENT ( #256, #14, ( #356 ) ) ;
#37 = CYLINDRICAL_SURFACE ( 'NONE', #369, 0.7500000000000001110 ) ;
#38 = ADVANCED_FACE ( 'NONE', ( #351 ), #196, .T. ) ;
#39 = APPLICATION_PROTOCOL_DEFINITION ( 'international standard', 'config_control_design', 1994, #116 ) ;
#40 = AXIS2_PLACEMENT_3D ( 'NONE', #325, #58, #298 ) ;
#41 = FACE_OUTER_BOUND ( 'NONE', #224, .T. ) ;
#42 = SECURITY_CLASSIFICATION_LEVEL ( 'unclassified' ) ;
#43 = CARTESIAN_POINT ( 'NONE',  ( 0.000000000000000000, -0.2054080967320381645, 0.000000000000000000 ) ) ;
#44 = COORDINATED_UNIVERSAL_TIME_OFFSET ( 8, 0, .BEHIND. ) ;
#45 = LINE ( 'NONE', #49, #120 ) ;
#46 = AXIS2_PLACEMENT_3D ( 'NONE', #81, #207, #115 ) ;
#47 = CIRCLE ( 'NONE', #333, 0.6999999999999999556 ) ;
#48 = CALENDAR_DATE ( 2025, 22, 4 ) ;
#49 = CARTESIAN_POINT ( 'NONE',  ( -0.5909999999999999698, -0.2054080967320382756, 7.237662582960857452E-17 ) ) ;
#50 = DIRECTION ( 'NONE',  ( 1.662451503328549287E-16, -1.000000000000000000, -0.000000000000000000 ) ) ;
#51 = ADVANCED_FACE ( 'NONE', ( #41 ), #137, .T. ) ;
#52 = UNCERTAINTY_MEASURE_WITH_UNIT (LENGTH_MEASURE( 1.000000000000000082E-05 ), #190, 'distance_accuracy_value', 'NONE');
#53 = CARTESIAN_POINT ( 'NONE',  ( -3.414809992080330256E-17, 1.024442997624098707E-16, 0.000000000000000000 ) ) ;
#54 = APPROVAL ( #197, 'UNSPECIFIED' ) ;
#55 = VECTOR ( 'NONE', #235, 39.37007874015748143 ) ;
#56 = DIRECTION ( 'NONE',  ( 1.662451503328549287E-16, -1.000000000000000000, -0.000000000000000000 ) ) ;
#57 = PERSON ( 'UNSPECIFIED', 'UNSPECIFIED', 'UNSPECIFIED', ('UNSPECIFIED'), ('UNSPECIFIED'), ('UNSPECIFIED') ) ;
#58 = DIRECTION ( 'NONE',  ( 1.662451503328549287E-16, -1.000000000000000000, -0.000000000000000000 ) ) ;
#59 = CARTESIAN_POINT ( 'NONE',  ( -3.414809992080330256E-17, 1.024442997624098707E-16, 0.000000000000000000 ) ) ;
#60 = DIRECTION ( 'NONE',  ( -1.000000000000000000, -1.662451503328549287E-16, 0.000000000000000000 ) ) ;
#61 = ORIENTED_EDGE ( 'NONE', *, *, #163, .T. ) ;
#62 = FACE_OUTER_BOUND ( 'NONE', #92, .T. ) ;
#63 = VERTEX_POINT ( 'NONE', #313 ) ;
#64 = AXIS2_PLACEMENT_3D ( 'NONE', #169, #70, #293 ) ;
#65 = EDGE_CURVE ( 'NONE', #365, #283, #171, .T. ) ;
#66 = CARTESIAN_POINT ( 'NONE',  ( 0.5675000000000000044, 1.967884225763050628E-16, 7.761199089596350713E-17 ) ) ;
#67 = EDGE_LOOP ( 'NONE', ( #101, #226, #97, #141 ) ) ;
#68 = ORIENTED_EDGE ( 'NONE', *, *, #185, .F. ) ;
#69 = CARTESIAN_POINT ( 'NONE',  ( 0.000000000000000000, 0.000000000000000000, 0.000000000000000000 ) ) ;
#70 = DIRECTION ( 'NONE',  ( 1.662451503328549287E-16, -1.000000000000000000, -0.000000000000000000 ) ) ;
#71 = CIRCLE ( 'NONE', #40, 0.7500000000000001110 ) ;
#72 = ORIENTED_EDGE ( 'NONE', *, *, #168, .T. ) ;
#73 = PERSON_AND_ORGANIZATION ( #57, #174 ) ;
#74 = ORIENTED_EDGE ( 'NONE', *, *, #5, .T. ) ;
#75 = PERSON_AND_ORGANIZATION ( #57, #174 ) ;
#76 = LINE ( 'NONE', #230, #321 ) ;
#77 = AXIS2_PLACEMENT_3D ( 'NONE', #27, #29, #119 ) ;
#78 = EDGE_CURVE ( 'NONE', #275, #283, #194, .T. ) ;
#79 = SHAPE_DEFINITION_REPRESENTATION ( #135, #90 ) ;
#80 = ORIENTED_EDGE ( 'NONE', *, *, #28, .T. ) ;
#81 = CARTESIAN_POINT ( 'NONE',  ( -6.531906560821360939E-17, 0.1875000000000001388, 0.000000000000000000 ) ) ;
#82 = DIRECTION ( 'NONE',  ( 1.000000000000000000, 1.662451503328549287E-16, 0.000000000000000000 ) ) ;
#83 = APPROVAL_PERSON_ORGANIZATION ( #347, #54, #312 ) ;
#84 = FACE_OUTER_BOUND ( 'NONE', #184, .T. ) ;
#85 = CARTESIAN_POINT ( 'NONE',  ( 0.5909999999999999698, -0.2054080967320380535, 0.000000000000000000 ) ) ;
#86 = DIRECTION ( 'NONE',  ( -1.662451503328549287E-16, 1.000000000000000000, 0.000000000000000000 ) ) ;
#87 = AXIS2_PLACEMENT_3D ( 'NONE', #43, #50, #198 ) ;
#88 = CARTESIAN_POINT ( 'NONE',  ( -3.414809992080330256E-17, 1.024442997624098707E-16, 0.000000000000000000 ) ) ;
#89 = AXIS2_PLACEMENT_3D ( 'NONE', #34, #276, #221 ) ;
#90 = ADVANCED_BREP_SHAPE_REPRESENTATION ( 'MS2004', ( #279, #269 ), #4 ) ;
#91 = CARTESIAN_POINT ( 'NONE',  ( 0.5909999999999998588, 2.006951836091271095E-16, 0.000000000000000000 ) ) ;
#92 = EDGE_LOOP ( 'NONE', ( #218, #17, #99, #134 ) ) ;
#93 = DIRECTION ( 'NONE',  ( 0.5771106266233806403, 0.8166659810708224443, 7.067566816482465687E-17 ) ) ;
#94 = ADVANCED_FACE ( 'NONE', ( #20, #320 ), #265, .F. ) ;
#95 = CARTESIAN_POINT ( 'NONE',  ( 0.5675000000000000044, -0.2054080967320380535, 0.000000000000000000 ) ) ;
#96 = CIRCLE ( 'NONE', #263, 0.7500000000000001110 ) ;
#97 = ORIENTED_EDGE ( 'NONE', *, *, #65, .T. ) ;
#98 = LOCAL_TIME ( 14, 6, 32.00000000000000000, #136 ) ;
#99 = ORIENTED_EDGE ( 'NONE', *, *, #271, .T. ) ;
#100 = DATE_AND_TIME ( #16, #326 ) ;
#101 = ORIENTED_EDGE ( 'NONE', *, *, #24, .F. ) ;
#102 = DATE_AND_TIME ( #200, #225 ) ;
#103 = ADVANCED_FACE ( 'NONE', ( #84 ), #297, .T. ) ;
#104 = EDGE_LOOP ( 'NONE', ( #80, #182 ) ) ;
#105 = CIRCLE ( 'NONE', #350, 0.5909999999999999698 ) ;
#106 = PRODUCT_DEFINITION ( 'UNKNOWN', '', #156, #341 ) ;
#107 = DIRECTION ( 'NONE',  ( 1.000000000000000000, 1.662451503328549041E-16, 0.000000000000000000 ) ) ;
#108 = APPROVAL_ROLE ( '' ) ;
#109 = EDGE_LOOP ( 'NONE', ( #72, #131 ) ) ;
#110 = ORIENTED_EDGE ( 'NONE', *, *, #248, .F. ) ;
#111 = CIRCLE ( 'NONE', #89, 0.5675000000000000044 ) ;
#112 = DIRECTION ( 'NONE',  ( 1.662451503328549287E-16, -1.000000000000000000, -0.000000000000000000 ) ) ;
#113 = CLOSED_SHELL ( 'NONE', ( #354, #142, #346, #51, #94, #103, #127, #38, #241, #232, #199 ) ) ;
#114 = DIRECTION ( 'NONE',  ( -1.000000000000000000, -1.662451503328549287E-16, 0.000000000000000000 ) ) ;
#115 = DIRECTION ( 'NONE',  ( 1.000000000000000000, 1.463489996605855296E-16, 0.000000000000000000 ) ) ;
#116 = APPLICATION_CONTEXT ( 'configuration controlled 3d designs of mechanical parts and assemblies' ) ;
#117 = VECTOR ( 'NONE', #255, 39.37007874015748143 ) ;
#118 = AXIS2_PLACEMENT_3D ( 'NONE', #362, #278, #304 ) ;
#119 = DIRECTION ( 'NONE',  ( -1.000000000000000000, -1.662451503328549287E-16, 0.000000000000000000 ) ) ;
#120 = VECTOR ( 'NONE', #311, 39.37007874015748143 ) ;
#121 = DIRECTION ( 'NONE',  ( 1.000000000000000000, 1.805185898897090168E-16, 0.000000000000000000 ) ) ;
#122 = EDGE_CURVE ( 'NONE', #191, #63, #317, .T. ) ;
#123 = DIRECTION ( 'NONE',  ( 1.000000000000000000, 1.821231995776175232E-16, 0.000000000000000000 ) ) ;
#124 = CC_DESIGN_PERSON_AND_ORGANIZATION_ASSIGNMENT ( #287, #373, ( #156 ) ) ;
#125 = FACE_OUTER_BOUND ( 'NONE', #170, .T. ) ;
#126 = CARTESIAN_POINT ( 'NONE',  ( -0.7500000000000001110, -2.223956298723133200E-17, 9.184850993605150903E-17 ) ) ;
#127 = ADVANCED_FACE ( 'NONE', ( #213, #382 ), #153, .F. ) ;
#128 = ORIENTED_EDGE ( 'NONE', *, *, #372, .F. ) ;
#129 = CARTESIAN_POINT ( 'NONE',  ( 0.000000000000000000, -0.2054080967320381645, 0.000000000000000000 ) ) ;
#130 = CC_DESIGN_PERSON_AND_ORGANIZATION_ASSIGNMENT ( #349, #282, ( #156 ) ) ;
#131 = ORIENTED_EDGE ( 'NONE', *, *, #78, .T. ) ;
#132 = DATE_AND_TIME ( #342, #98 ) ;
#133 = VERTEX_POINT ( 'NONE', #296 ) ;
#134 = ORIENTED_EDGE ( 'NONE', *, *, #331, .F. ) ;
#135 = PRODUCT_DEFINITION_SHAPE ( 'NONE', 'NONE',  #106 ) ;
#136 = COORDINATED_UNIVERSAL_TIME_OFFSET ( 8, 0, .BEHIND. ) ;
#137 = CYLINDRICAL_SURFACE ( 'NONE', #87, 0.5909999999999999698 ) ;
#138 = AXIS2_PLACEMENT_3D ( 'NONE', #361, #181, #155 ) ;
#139 = LOCAL_TIME ( 14, 6, 32.00000000000000000, #291 ) ;
#140 = APPLICATION_CONTEXT ( 'configuration controlled 3d designs of mechanical parts and assemblies' ) ;
#141 = ORIENTED_EDGE ( 'NONE', *, *, #78, .F. ) ;
#142 = ADVANCED_FACE ( 'NONE', ( #6 ), #13, .F. ) ;
#143 = DATE_TIME_ROLE ( 'classification_date' ) ;
#144 = EDGE_LOOP ( 'NONE', ( #243, #229 ) ) ;
#145 = CC_DESIGN_PERSON_AND_ORGANIZATION_ASSIGNMENT ( #73, #202, ( #106 ) ) ;
#146 = DIRECTION ( 'NONE',  ( 1.662451503328549287E-16, -1.000000000000000000, -0.000000000000000000 ) ) ;
#147 = CONICAL_SURFACE ( 'NONE', #249, 0.5675000000000000044, 0.6151862381119735934 ) ;
#148 = DIRECTION ( 'NONE',  ( -1.000000000000000000, -1.662451503328549287E-16, 0.000000000000000000 ) ) ;
#149 = DIRECTION ( 'NONE',  ( 1.000000000000000000, 1.805185898897090168E-16, 0.000000000000000000 ) ) ;
#150 = DIRECTION ( 'NONE',  ( 1.000000000000000000, 1.662451503328549041E-16, 0.000000000000000000 ) ) ;
#151 = VECTOR ( 'NONE', #358, 39.37007874015748854 ) ;
#152 = CARTESIAN_POINT ( 'NONE',  ( -2.977134233393016520E-18, -0.1874999999999998335, 0.000000000000000000 ) ) ;
#153 = PLANE ( 'NONE',  #368 ) ;
#154 = CARTESIAN_POINT ( 'NONE',  ( -0.5675000000000001155, 8.100176948514690947E-18, 0.000000000000000000 ) ) ;
#155 = DIRECTION ( 'NONE',  ( 1.000000000000000000, 1.821231995776175232E-16, 0.000000000000000000 ) ) ;
#156 = PRODUCT_DEFINITION_FORMATION_WITH_SPECIFIED_SOURCE ( 'ANY', '', #245, .NOT_KNOWN. ) ;
#157 = DIRECTION ( 'NONE',  ( 1.662451503328549287E-16, -1.000000000000000000, -0.000000000000000000 ) ) ;
#158 = EDGE_LOOP ( 'NONE', ( #227, #128 ) ) ;
#159 =( NAMED_UNIT ( * ) PLANE_ANGLE_UNIT ( ) SI_UNIT ( $, .RADIAN. ) );
#160 = DIRECTION ( 'NONE',  ( 1.000000000000000000, 0.000000000000000000, 0.000000000000000000 ) ) ;
#161 = VECTOR ( 'NONE', #33, 39.37007874015748143 ) ;
#162 = ORIENTED_EDGE ( 'NONE', *, *, #328, .T. ) ;
#163 = EDGE_CURVE ( 'NONE', #309, #343, #324, .T. ) ;
#164 = PERSON_AND_ORGANIZATION ( #57, #174 ) ;
#165 = ORIENTED_EDGE ( 'NONE', *, *, #24, .T. ) ;
#166 = PERSON_AND_ORGANIZATION_ROLE ( 'design_owner' ) ;
#167 = DIRECTION ( 'NONE',  ( 1.662451503328549287E-16, -1.000000000000000000, -0.000000000000000000 ) ) ;
#168 = EDGE_CURVE ( 'NONE', #283, #275, #96, .T. ) ;
#169 = CARTESIAN_POINT ( 'NONE',  ( -2.977134233393017291E-18, -0.1874999999999998335, 0.000000000000000000 ) ) ;
#170 = EDGE_LOOP ( 'NONE', ( #201, #165, #23, #189 ) ) ;
#171 = LINE ( 'NONE', #19, #117 ) ;
#172 = CARTESIAN_POINT ( 'NONE',  ( -3.414809992080330256E-17, 1.024442997624098707E-16, 0.000000000000000000 ) ) ;
#173 = EDGE_CURVE ( 'NONE', #288, #340, #319, .T. ) ;
#174 = ORGANIZATION ( 'UNSPECIFIED', 'UNSPECIFIED', '' ) ;
#175 = DIRECTION ( 'NONE',  ( 1.662451503328549287E-16, -1.000000000000000000, -0.000000000000000000 ) ) ;
#176 = CC_DESIGN_PERSON_AND_ORGANIZATION_ASSIGNMENT ( #75, #166, ( #245 ) ) ;
#177 = DIRECTION ( 'NONE',  ( -1.662451503328549287E-16, 1.000000000000000000, 0.000000000000000000 ) ) ;
#178 = CARTESIAN_POINT ( 'NONE',  ( -0.6999999999999999556, 0.1874999999999999722, 0.000000000000000000 ) ) ;
#179 = AXIS2_PLACEMENT_3D ( 'NONE', #178, #234, #82 ) ;
#180 = LINE ( 'NONE', #294, #151 ) ;
#181 = DIRECTION ( 'NONE',  ( 1.662451503328549287E-16, -1.000000000000000000, -0.000000000000000000 ) ) ;
#182 = ORIENTED_EDGE ( 'NONE', *, *, #314, .T. ) ;
#183 = DIRECTION ( 'NONE',  ( 1.662451503328549287E-16, -1.000000000000000000, -0.000000000000000000 ) ) ;
#184 = EDGE_LOOP ( 'NONE', ( #206, #247, #61, #303 ) ) ;
#185 = EDGE_CURVE ( 'NONE', #340, #288, #204, .T. ) ;
#186 = APPROVAL_PERSON_ORGANIZATION ( #379, #357, #18 ) ;
#187 = CYLINDRICAL_SURFACE ( 'NONE', #195, 0.5675000000000000044 ) ;
#188 = CC_DESIGN_SECURITY_CLASSIFICATION ( #356, ( #156 ) ) ;
#189 = ORIENTED_EDGE ( 'NONE', *, *, #65, .F. ) ;
#190 =( CONVERSION_BASED_UNIT ( 'INCH', #366 ) LENGTH_UNIT ( ) NAMED_UNIT ( #268 ) );
#191 = VERTEX_POINT ( 'NONE', #330 ) ;
#192 = ORIENTED_EDGE ( 'NONE', *, *, #277, .T. ) ;
#193 = APPLICATION_PROTOCOL_DEFINITION ( 'international standard', 'config_control_design', 1994, #140 ) ;
#194 = CIRCLE ( 'NONE', #25, 0.7500000000000001110 ) ;
#195 = AXIS2_PLACEMENT_3D ( 'NONE', #129, #183, #12 ) ;
#196 = CYLINDRICAL_SURFACE ( 'NONE', #262, 0.7500000000000001110 ) ;
#197 = APPROVAL_STATUS ( 'not_yet_approved' ) ;
#198 = DIRECTION ( 'NONE',  ( 1.000000000000000000, 1.733406087350420990E-16, 0.000000000000000000 ) ) ;
#199 = ADVANCED_FACE ( 'NONE', ( #238 ), #264, .F. ) ;
#200 = CALENDAR_DATE ( 2025, 22, 4 ) ;
#201 = ORIENTED_EDGE ( 'NONE', *, *, #260, .T. ) ;
#202 = PERSON_AND_ORGANIZATION_ROLE ( 'creator' ) ;
#203 = DIRECTION ( 'NONE',  ( 1.000000000000000000, 1.821231995776175232E-16, 0.000000000000000000 ) ) ;
#204 = CIRCLE ( 'NONE', #299, 0.5675000000000000044 ) ;
#205 = CALENDAR_DATE ( 2025, 22, 4 ) ;
#206 = ORIENTED_EDGE ( 'NONE', *, *, #5, .F. ) ;
#207 = DIRECTION ( 'NONE',  ( 1.662451503328549287E-16, -1.000000000000000000, -0.000000000000000000 ) ) ;
#208 = DIRECTION ( 'NONE',  ( 1.662451503328549287E-16, -1.000000000000000000, -0.000000000000000000 ) ) ;
#209 = AXIS2_PLACEMENT_3D ( 'NONE', #152, #56, #121 ) ;
#210 = LINE ( 'NONE', #270, #220 ) ;
#211 = EDGE_CURVE ( 'NONE', #288, #63, #180, .T. ) ;
#212 = FACE_OUTER_BOUND ( 'NONE', #292, .T. ) ;
#213 = FACE_BOUND ( 'NONE', #144, .T. ) ;
#214 = AXIS2_PLACEMENT_3D ( 'NONE', #302, #157, #337 ) ;
#215 = DIRECTION ( 'NONE',  ( 1.000000000000000000, 1.662451503328549041E-16, 0.000000000000000000 ) ) ;
#216 = ORIENTED_EDGE ( 'NONE', *, *, #122, .F. ) ;
#217 = CARTESIAN_POINT ( 'NONE',  ( 0.5674999999999998934, 1.967884225763050381E-16, 6.949870585161229469E-17 ) ) ;
#218 = ORIENTED_EDGE ( 'NONE', *, *, #173, .F. ) ;
#219 = PRODUCT_RELATED_PRODUCT_CATEGORY ( 'detail', '', ( #245 ) ) ;
#220 = VECTOR ( 'NONE', #208, 39.37007874015748143 ) ;
#221 = DIRECTION ( 'NONE',  ( 1.000000000000000000, 1.805185898897090168E-16, 0.000000000000000000 ) ) ;
#222 = ORIENTED_EDGE ( 'NONE', *, *, #271, .F. ) ;
#223 = APPROVAL_STATUS ( 'not_yet_approved' ) ;
#224 = EDGE_LOOP ( 'NONE', ( #338, #74, #348, #336 ) ) ;
#225 = LOCAL_TIME ( 14, 6, 32.00000000000000000, #375 ) ;
#226 = ORIENTED_EDGE ( 'NONE', *, *, #372, .T. ) ;
#227 = ORIENTED_EDGE ( 'NONE', *, *, #260, .F. ) ;
#228 = DIRECTION ( 'NONE',  ( 0.000000000000000000, 0.000000000000000000, 1.000000000000000000 ) ) ;
#229 = ORIENTED_EDGE ( 'NONE', *, *, #286, .F. ) ;
#230 = CARTESIAN_POINT ( 'NONE',  ( -0.7500000000000001110, -0.2054080967320383033, 9.184850993605150903E-17 ) ) ;
#231 = CIRCLE ( 'NONE', #118, 0.5909999999999999698 ) ;
#232 = ADVANCED_FACE ( 'NONE', ( #212 ), #147, .F. ) ;
#233 = DIRECTION ( 'NONE',  ( 1.662451503328549287E-16, -1.000000000000000000, -0.000000000000000000 ) ) ;
#234 = DIRECTION ( 'NONE',  ( 1.662451503328549287E-16, -1.000000000000000000, -0.000000000000000000 ) ) ;
#235 = DIRECTION ( 'NONE',  ( 1.662451503328549287E-16, -1.000000000000000000, -0.000000000000000000 ) ) ;
#236 = CC_DESIGN_APPROVAL ( #54, ( #156 ) ) ;
#237 = DIRECTION ( 'NONE',  ( 1.000000000000000000, 1.662451503328549534E-16, 0.000000000000000000 ) ) ;
#238 = FACE_OUTER_BOUND ( 'NONE', #316, .T. ) ;
#239 = AXIS2_PLACEMENT_3D ( 'NONE', #359, #86, #148 ) ;
#240 = CIRCLE ( 'NONE', #209, 0.5675000000000000044 ) ;
#241 = ADVANCED_FACE ( 'NONE', ( #26, #1 ), #355, .F. ) ;
#242 = CARTESIAN_POINT ( 'NONE',  ( 0.7500000000000001110, 2.271281625120510734E-16, 0.000000000000000000 ) ) ;
#243 = ORIENTED_EDGE ( 'NONE', *, *, #301, .F. ) ;
#244 = DIRECTION ( 'NONE',  ( 1.000000000000000000, 1.463489996605855296E-16, 0.000000000000000000 ) ) ;
#245 = PRODUCT ( 'MS2004', 'MS2004', '', ( #315 ) ) ;
#246 = CARTESIAN_POINT ( 'NONE',  ( 0.7500000000000001110, 0.1875000000000002776, 0.000000000000000000 ) ) ;
#247 = ORIENTED_EDGE ( 'NONE', *, *, #286, .T. ) ;
#248 = EDGE_CURVE ( 'NONE', #288, #22, #210, .T. ) ;
#249 = AXIS2_PLACEMENT_3D ( 'NONE', #59, #177, #114 ) ;
#250 = ORIENTED_EDGE ( 'NONE', *, *, #185, .T. ) ;
#251 = APPROVAL_DATE_TIME ( #132, #357 ) ;
#252 = EDGE_LOOP ( 'NONE', ( #376, #381 ) ) ;
#253 = VERTEX_POINT ( 'NONE', #329 ) ;
#254 = CIRCLE ( 'NONE', #138, 0.7500000000000001110 ) ;
#255 = DIRECTION ( 'NONE',  ( 1.662451503328549287E-16, -1.000000000000000000, -0.000000000000000000 ) ) ;
#256 = PERSON_AND_ORGANIZATION ( #57, #174 ) ;
#257 = DIRECTION ( 'NONE',  ( 1.662451503328549287E-16, -1.000000000000000000, -0.000000000000000000 ) ) ;
#258 = DATE_AND_TIME ( #205, #139 ) ;
#259 = ORIENTED_EDGE ( 'NONE', *, *, #211, .T. ) ;
#260 = EDGE_CURVE ( 'NONE', #365, #253, #71, .T. ) ;
#261 = ORIENTED_EDGE ( 'NONE', *, *, #277, .F. ) ;
#262 = AXIS2_PLACEMENT_3D ( 'NONE', #323, #257, #203 ) ;
#263 = AXIS2_PLACEMENT_3D ( 'NONE', #172, #3, #150 ) ;
#264 = CYLINDRICAL_SURFACE ( 'NONE', #35, 0.5675000000000000044 ) ;
#265 = PLANE ( 'NONE',  #239 ) ;
#266 = CARTESIAN_POINT ( 'NONE',  ( -3.414809992080330256E-17, 1.024442997624098707E-16, 0.000000000000000000 ) ) ;
#267 = AXIS2_PLACEMENT_3D ( 'NONE', #353, #175, #30 ) ;
#268 = DIMENSIONAL_EXPONENTS ( 1.000000000000000000, 0.000000000000000000, 0.000000000000000000, 0.000000000000000000, 0.000000000000000000, 0.000000000000000000, 0.000000000000000000 ) ;
#269 = AXIS2_PLACEMENT_3D ( 'NONE', #69, #228, #160 ) ;
#270 = CARTESIAN_POINT ( 'NONE',  ( -0.5675000000000000044, -0.2054080967320382756, 6.949870585161230702E-17 ) ) ;
#271 = EDGE_CURVE ( 'NONE', #22, #377, #240, .T. ) ;
#272 = DIRECTION ( 'NONE',  ( 1.662451503328549287E-16, -1.000000000000000000, -0.000000000000000000 ) ) ;
#273 = CC_DESIGN_APPROVAL ( #374, ( #106 ) ) ;
#274 = CARTESIAN_POINT ( 'NONE',  ( 0.5675000000000000044, -0.1874999999999997502, 0.000000000000000000 ) ) ;
#275 = VERTEX_POINT ( 'NONE', #126 ) ;
#276 = DIRECTION ( 'NONE',  ( 1.662451503328549287E-16, -1.000000000000000000, -0.000000000000000000 ) ) ;
#277 = EDGE_CURVE ( 'NONE', #340, #191, #364, .T. ) ;
#278 = DIRECTION ( 'NONE',  ( 1.662451503328549287E-16, -1.000000000000000000, -0.000000000000000000 ) ) ;
#279 = MANIFOLD_SOLID_BREP ( 'Revolve1', #113 ) ;
#280 = CIRCLE ( 'NONE', #64, 0.5909999999999999698 ) ;
#281 = AXIS2_PLACEMENT_3D ( 'NONE', #266, #112, #237 ) ;
#282 = PERSON_AND_ORGANIZATION_ROLE ( 'design_supplier' ) ;
#283 = VERTEX_POINT ( 'NONE', #242 ) ;
#284 = DATE_TIME_ROLE ( 'creation_date' ) ;
#285 = EDGE_LOOP ( 'NONE', ( #308, #192, #305, #367 ) ) ;
#286 = EDGE_CURVE ( 'NONE', #133, #309, #231, .T. ) ;
#287 = PERSON_AND_ORGANIZATION ( #57, #174 ) ;
#288 = VERTEX_POINT ( 'NONE', #154 ) ;
#289 = APPROVAL_DATE_TIME ( #310, #54 ) ;
#290 = CARTESIAN_POINT ( 'NONE',  ( -3.414809992080330256E-17, 1.024442997624098707E-16, 0.000000000000000000 ) ) ;
#291 = COORDINATED_UNIVERSAL_TIME_OFFSET ( 8, 0, .BEHIND. ) ;
#292 = EDGE_LOOP ( 'NONE', ( #261, #250, #259, #216 ) ) ;
#293 = DIRECTION ( 'NONE',  ( 1.000000000000000000, 1.733406087350420990E-16, 0.000000000000000000 ) ) ;
#294 = CARTESIAN_POINT ( 'NONE',  ( -0.5675000000000000044, 8.100176948514706355E-18, 0.000000000000000000 ) ) ;
#295 = VECTOR ( 'NONE', #93, 39.37007874015748143 ) ;
#296 = CARTESIAN_POINT ( 'NONE',  ( -0.5910000000000000808, 4.193415915692614143E-18, 7.237662582960858685E-17 ) ) ;
#297 = CYLINDRICAL_SURFACE ( 'NONE', #267, 0.5909999999999999698 ) ;
#298 = DIRECTION ( 'NONE',  ( 1.000000000000000000, 1.821231995776175232E-16, 0.000000000000000000 ) ) ;
#299 = AXIS2_PLACEMENT_3D ( 'NONE', #53, #233, #352 ) ;
#300 = CARTESIAN_POINT ( 'NONE',  ( 0.000000000000000000, -0.2054080967320381645, 0.000000000000000000 ) ) ;
#301 = EDGE_CURVE ( 'NONE', #309, #133, #105, .T. ) ;
#302 = CARTESIAN_POINT ( 'NONE',  ( -2.977134233393017291E-18, -0.1874999999999998335, 0.000000000000000000 ) ) ;
#303 = ORIENTED_EDGE ( 'NONE', *, *, #314, .F. ) ;
#304 = DIRECTION ( 'NONE',  ( 1.000000000000000000, 1.662451503328549041E-16, 0.000000000000000000 ) ) ;
#305 = ORIENTED_EDGE ( 'NONE', *, *, #378, .F. ) ;
#306 = LOCAL_TIME ( 14, 6, 32.00000000000000000, #44 ) ;
#307 =( LENGTH_UNIT ( ) NAMED_UNIT ( * ) SI_UNIT ( $, .METRE. ) );
#308 = ORIENTED_EDGE ( 'NONE', *, *, #173, .T. ) ;
#309 = VERTEX_POINT ( 'NONE', #91 ) ;
#310 = DATE_AND_TIME ( #48, #306 ) ;
#311 = DIRECTION ( 'NONE',  ( 1.662451503328549287E-16, -1.000000000000000000, -0.000000000000000000 ) ) ;
#312 = APPROVAL_ROLE ( '' ) ;
#313 = CARTESIAN_POINT ( 'NONE',  ( -0.6999999999999999556, 0.1875000000000000278, 0.000000000000000000 ) ) ;
#314 = EDGE_CURVE ( 'NONE', #345, #343, #31, .T. ) ;
#315 = MECHANICAL_CONTEXT ( 'NONE', #116, 'mechanical' ) ;
#316 = EDGE_LOOP ( 'NONE', ( #110, #68, #363, #162 ) ) ;
#317 = CIRCLE ( 'NONE', #46, 0.6999999999999999556 ) ;
#318 = COORDINATED_UNIVERSAL_TIME_OFFSET ( 8, 0, .BEHIND. ) ;
#319 = CIRCLE ( 'NONE', #281, 0.5675000000000000044 ) ;
#320 = FACE_OUTER_BOUND ( 'NONE', #104, .T. ) ;
#321 = VECTOR ( 'NONE', #167, 39.37007874015748143 ) ;
#322 = APPROVAL_STATUS ( 'not_yet_approved' ) ;
#323 = CARTESIAN_POINT ( 'NONE',  ( 0.000000000000000000, -0.2054080967320381645, 0.000000000000000000 ) ) ;
#324 = LINE ( 'NONE', #85, #55 ) ;
#325 = CARTESIAN_POINT ( 'NONE',  ( -6.531906560821360939E-17, 0.1875000000000001388, 0.000000000000000000 ) ) ;
#326 = LOCAL_TIME ( 14, 6, 32.00000000000000000, #318 ) ;
#327 = CC_DESIGN_APPROVAL ( #357, ( #356 ) ) ;
#328 = EDGE_CURVE ( 'NONE', #377, #22, #111, .T. ) ;
#329 = CARTESIAN_POINT ( 'NONE',  ( -0.7500000000000001110, 0.1875000000000000278, 9.184850993605150903E-17 ) ) ;
#330 = CARTESIAN_POINT ( 'NONE',  ( 0.6999999999999999556, 0.1875000000000002776, 8.572527594031471957E-17 ) ) ;
#331 = EDGE_CURVE ( 'NONE', #340, #377, #8, .T. ) ;
#332 = DIRECTION ( 'NONE',  ( -1.662451503328549287E-16, 1.000000000000000000, 0.000000000000000000 ) ) ;
#333 = AXIS2_PLACEMENT_3D ( 'NONE', #334, #10, #244 ) ;
#334 = CARTESIAN_POINT ( 'NONE',  ( -6.531906560821360939E-17, 0.1875000000000001388, 0.000000000000000000 ) ) ;
#335 = CARTESIAN_POINT ( 'NONE',  ( -0.5910000000000000808, -0.1874999999999999445, 7.237662582960858685E-17 ) ) ;
#336 = ORIENTED_EDGE ( 'NONE', *, *, #163, .F. ) ;
#337 = DIRECTION ( 'NONE',  ( 1.000000000000000000, 1.733406087350420990E-16, 0.000000000000000000 ) ) ;
#338 = ORIENTED_EDGE ( 'NONE', *, *, #301, .T. ) ;
#339 = DIRECTION ( 'NONE',  ( 1.662451503328549287E-16, -1.000000000000000000, -0.000000000000000000 ) ) ;
#340 = VERTEX_POINT ( 'NONE', #66 ) ;
#341 = DESIGN_CONTEXT ( 'detailed design', #140, 'design' ) ;
#342 = CALENDAR_DATE ( 2025, 22, 4 ) ;
#343 = VERTEX_POINT ( 'NONE', #7 ) ;
#344 = CARTESIAN_POINT ( 'NONE',  ( -0.5675000000000000044, -0.1874999999999999445, 6.949870585161230702E-17 ) ) ;
#345 = VERTEX_POINT ( 'NONE', #335 ) ;
#346 = ADVANCED_FACE ( 'NONE', ( #125 ), #37, .T. ) ;
#347 = PERSON_AND_ORGANIZATION ( #57, #174 ) ;
#348 = ORIENTED_EDGE ( 'NONE', *, *, #28, .F. ) ;
#349 = PERSON_AND_ORGANIZATION ( #57, #174 ) ;
#350 = AXIS2_PLACEMENT_3D ( 'NONE', #88, #272, #215 ) ;
#351 = FACE_OUTER_BOUND ( 'NONE', #67, .T. ) ;
#352 = DIRECTION ( 'NONE',  ( 1.000000000000000000, 1.662451503328549534E-16, 0.000000000000000000 ) ) ;
#353 = CARTESIAN_POINT ( 'NONE',  ( 0.000000000000000000, -0.2054080967320381645, 0.000000000000000000 ) ) ;
#354 = ADVANCED_FACE ( 'NONE', ( #62 ), #187, .F. ) ;
#355 = PLANE ( 'NONE',  #179 ) ;
#356 = SECURITY_CLASSIFICATION ( '', '', #42 ) ;
#357 = APPROVAL ( #223, 'UNSPECIFIED' ) ;
#358 = DIRECTION ( 'NONE',  ( -0.5771106266233808624, 0.8166659810708222222, 0.000000000000000000 ) ) ;
#359 = CARTESIAN_POINT ( 'NONE',  ( -0.5675000000000000044, -0.1874999999999999445, 0.000000000000000000 ) ) ;
#360 = CC_DESIGN_DATE_AND_TIME_ASSIGNMENT ( #258, #143, ( #356 ) ) ;
#361 = CARTESIAN_POINT ( 'NONE',  ( -6.531906560821360939E-17, 0.1875000000000001388, 0.000000000000000000 ) ) ;
#362 = CARTESIAN_POINT ( 'NONE',  ( -3.414809992080330256E-17, 1.024442997624098707E-16, 0.000000000000000000 ) ) ;
#363 = ORIENTED_EDGE ( 'NONE', *, *, #331, .T. ) ;
#364 = LINE ( 'NONE', #217, #295 ) ;
#365 = VERTEX_POINT ( 'NONE', #246 ) ;
#366 = LENGTH_MEASURE_WITH_UNIT ( LENGTH_MEASURE( 0.02539999999999999897 ), #307 );
#367 = ORIENTED_EDGE ( 'NONE', *, *, #211, .F. ) ;
#368 = AXIS2_PLACEMENT_3D ( 'NONE', #2, #332, #60 ) ;
#369 = AXIS2_PLACEMENT_3D ( 'NONE', #11, #339, #123 ) ;
#370 =( NAMED_UNIT ( * ) SI_UNIT ( $, .STERADIAN. ) SOLID_ANGLE_UNIT ( ) );
#371 = EDGE_LOOP ( 'NONE', ( #380, #222 ) ) ;
#372 = EDGE_CURVE ( 'NONE', #253, #365, #254, .T. ) ;
#373 = PERSON_AND_ORGANIZATION_ROLE ( 'creator' ) ;
#374 = APPROVAL ( #322, 'UNSPECIFIED' ) ;
#375 = COORDINATED_UNIVERSAL_TIME_OFFSET ( 8, 0, .BEHIND. ) ;
#376 = ORIENTED_EDGE ( 'NONE', *, *, #378, .T. ) ;
#377 = VERTEX_POINT ( 'NONE', #274 ) ;
#378 = EDGE_CURVE ( 'NONE', #63, #191, #47, .T. ) ;
#379 = PERSON_AND_ORGANIZATION ( #57, #174 ) ;
#380 = ORIENTED_EDGE ( 'NONE', *, *, #328, .F. ) ;
#381 = ORIENTED_EDGE ( 'NONE', *, *, #122, .T. ) ;
#382 = FACE_OUTER_BOUND ( 'NONE', #109, .T. ) ;
ENDSEC;
END-ISO-10303-21;
