ISO-10303-21;
HEADER;
FILE_DESCRIPTION (( 'STEP AP214' ),
    '1' );
FILE_NAME ('MS2003.STEP',
    '2025-04-22T21:05:09',
    ( '' ),
    ( '' ),
    'SwSTEP 2.0',
    'SolidWorks 2023',
    '' );
FILE_SCHEMA (( 'AUTOMOTIVE_DESIGN' ));
ENDSEC;

DATA;
#1 = DIRECTION ( 'NONE',  ( -1.000000000000000000, -1.662451503328549287E-16, 0.000000000000000000 ) ) ;
#2 = EDGE_CURVE ( 'NONE', #124, #260, #21, .T. ) ;
#3 = CARTESIAN_POINT ( 'NONE',  ( 0.000000000000000000, -0.2054080967320381645, 0.000000000000000000 ) ) ;
#4 = ORIENTED_EDGE ( 'NONE', *, *, #237, .F. ) ;
#5 =( CONVERSION_BASED_UNIT ( 'INCH', #111 ) LENGTH_UNIT ( ) NAMED_UNIT ( #99 ) );
#6 = VERTEX_POINT ( 'NONE', #14 ) ;
#7 = CARTESIAN_POINT ( 'NONE',  ( 0.5749999999999998446, 0.1875000000000001943, 7.041719095097280140E-17 ) ) ;
#8 = VERTEX_POINT ( 'NONE', #38 ) ;
#9 = CARTESIAN_POINT ( 'NONE',  ( -3.414809992080330256E-17, 6.829619984160658046E-17, 0.000000000000000000 ) ) ;
#10 = ORIENTED_EDGE ( 'NONE', *, *, #177, .F. ) ;
#11 = VERTEX_POINT ( 'NONE', #176 ) ;
#12 = STYLED_ITEM ( 'NONE', ( #167 ), #307 ) ;
#13 = PRODUCT_CONTEXT ( 'NONE', #101, 'mechanical' ) ;
#14 = CARTESIAN_POINT ( 'NONE',  ( -0.5750000000000000666, 0.1874999999999999722, 0.000000000000000000 ) ) ;
#15 = DIRECTION ( 'NONE',  ( -1.000000000000000000, -1.662451503328549287E-16, 0.000000000000000000 ) ) ;
#16 = DIRECTION ( 'NONE',  ( 0.000000000000000000, 0.000000000000000000, 1.000000000000000000 ) ) ;
#17 = DIRECTION ( 'NONE',  ( 1.662451503328549287E-16, -1.000000000000000000, -0.000000000000000000 ) ) ;
#18 = CIRCLE ( 'NONE', #129, 0.5202499999999999902 ) ;
#19 = VERTEX_POINT ( 'NONE', #327 ) ;
#20 = EDGE_CURVE ( 'NONE', #19, #294, #251, .T. ) ;
#21 = LINE ( 'NONE', #275, #123 ) ;
#22 = PRODUCT_RELATED_PRODUCT_CATEGORY ( 'part', '', ( #94 ) ) ;
#23 = DIRECTION ( 'NONE',  ( 1.000000000000000000, 1.639108796198557931E-16, 0.000000000000000000 ) ) ;
#24 = AXIS2_PLACEMENT_3D ( 'NONE', #151, #324, #250 ) ;
#25 = DIRECTION ( 'NONE',  ( 1.662451503328549287E-16, -1.000000000000000000, -0.000000000000000000 ) ) ;
#26 = CARTESIAN_POINT ( 'NONE',  ( -2.977134233393009202E-18, -0.1874999999999999167, 0.000000000000000000 ) ) ;
#27 = CARTESIAN_POINT ( 'NONE',  ( -0.5024999999999999467, -0.2054080967320382201, 6.153850165715447949E-17 ) ) ;
#28 = LINE ( 'NONE', #181, #70 ) ;
#29 = EDGE_CURVE ( 'NONE', #260, #297, #239, .T. ) ;
#30 = EDGE_LOOP ( 'NONE', ( #134, #150, #140, #168 ) ) ;
#31 = ORIENTED_EDGE ( 'NONE', *, *, #63, .F. ) ;
#32 = CYLINDRICAL_SURFACE ( 'NONE', #92, 0.5202499999999999902 ) ;
#33 = EDGE_LOOP ( 'NONE', ( #137, #114, #247, #54 ) ) ;
#34 = CARTESIAN_POINT ( 'NONE',  ( -6.531906560821360939E-17, 0.1875000000000001388, 0.000000000000000000 ) ) ;
#35 = FILL_AREA_STYLE ('',( #162 ) ) ;
#36 = ORIENTED_EDGE ( 'NONE', *, *, #96, .F. ) ;
#37 = SHAPE_DEFINITION_REPRESENTATION ( #186, #89 ) ;
#38 = CARTESIAN_POINT ( 'NONE',  ( 0.6250000000000000000, 0.1875000000000002498, 0.000000000000000000 ) ) ;
#39 = CIRCLE ( 'NONE', #24, 0.6250000000000000000 ) ;
#40 = FACE_OUTER_BOUND ( 'NONE', #30, .T. ) ;
#41 = CARTESIAN_POINT ( 'NONE',  ( -2.977134233393009202E-18, -0.1874999999999999167, 0.000000000000000000 ) ) ;
#42 = CARTESIAN_POINT ( 'NONE',  ( -0.5025000000000000577, -0.1874999999999999722, 6.153850165715450415E-17 ) ) ;
#43 = AXIS2_PLACEMENT_3D ( 'NONE', #282, #77, #280 ) ;
#44 = VERTEX_POINT ( 'NONE', #229 ) ;
#45 = DIRECTION ( 'NONE',  ( 1.662451503328549287E-16, -1.000000000000000000, -0.000000000000000000 ) ) ;
#46 = EDGE_CURVE ( 'NONE', #266, #11, #69, .T. ) ;
#47 = LINE ( 'NONE', #27, #270 ) ;
#48 = AXIS2_PLACEMENT_3D ( 'NONE', #34, #292, #244 ) ;
#49 = AXIS2_PLACEMENT_3D ( 'NONE', #41, #17, #204 ) ;
#50 = FACE_BOUND ( 'NONE', #143, .T. ) ;
#51 = DIRECTION ( 'NONE',  ( 1.662451503328549287E-16, -1.000000000000000000, -0.000000000000000000 ) ) ;
#52 = DIRECTION ( 'NONE',  ( 1.662451503328549287E-16, -1.000000000000000000, -0.000000000000000000 ) ) ;
#53 = ORIENTED_EDGE ( 'NONE', *, *, #67, .T. ) ;
#54 = ORIENTED_EDGE ( 'NONE', *, *, #221, .T. ) ;
#55 = EDGE_CURVE ( 'NONE', #60, #44, #201, .T. ) ;
#56 = SURFACE_SIDE_STYLE ('',( #259 ) ) ;
#57 = VERTEX_POINT ( 'NONE', #302 ) ;
#58 = ADVANCED_FACE ( 'NONE', ( #68, #273 ), #175, .F. ) ;
#59 = CARTESIAN_POINT ( 'NONE',  ( 0.5024999999999999467, -0.2054080967320380813, 0.000000000000000000 ) ) ;
#60 = VERTEX_POINT ( 'NONE', #42 ) ;
#61 = ORIENTED_EDGE ( 'NONE', *, *, #177, .T. ) ;
#62 = CYLINDRICAL_SURFACE ( 'NONE', #271, 0.5024999999999999467 ) ;
#63 = EDGE_CURVE ( 'NONE', #11, #66, #39, .T. ) ;
#64 = CARTESIAN_POINT ( 'NONE',  ( 0.000000000000000000, -0.2054080967320381645, 0.000000000000000000 ) ) ;
#65 = AXIS2_PLACEMENT_3D ( 'NONE', #288, #52, #80 ) ;
#66 = VERTEX_POINT ( 'NONE', #303 ) ;
#67 = EDGE_CURVE ( 'NONE', #57, #124, #109, .T. ) ;
#68 = FACE_OUTER_BOUND ( 'NONE', #117, .T. ) ;
#69 = LINE ( 'NONE', #299, #145 ) ;
#70 = VECTOR ( 'NONE', #45, 39.37007874015748143 ) ;
#71 = CARTESIAN_POINT ( 'NONE',  ( 0.000000000000000000, -0.2054080967320381645, 0.000000000000000000 ) ) ;
#72 = ADVANCED_FACE ( 'NONE', ( #40 ), #62, .F. ) ;
#73 = CARTESIAN_POINT ( 'NONE',  ( 0.000000000000000000, -0.2054080967320381645, 0.000000000000000000 ) ) ;
#74 = DIRECTION ( 'NONE',  ( -0.3606451928835537890, 0.9327030850436726084, 0.000000000000000000 ) ) ;
#75 = AXIS2_PLACEMENT_3D ( 'NONE', #211, #130, #185 ) ;
#76 = AXIS2_PLACEMENT_3D ( 'NONE', #198, #173, #15 ) ;
#77 = DIRECTION ( 'NONE',  ( 1.662451503328549287E-16, -1.000000000000000000, -0.000000000000000000 ) ) ;
#78 = DIRECTION ( 'NONE',  ( 1.662451503328549287E-16, -1.000000000000000000, -0.000000000000000000 ) ) ;
#79 = CIRCLE ( 'NONE', #43, 0.5024999999999999467 ) ;
#80 = DIRECTION ( 'NONE',  ( 1.000000000000000000, 1.662451503328549534E-16, 0.000000000000000000 ) ) ;
#81 = ORIENTED_EDGE ( 'NONE', *, *, #96, .T. ) ;
#82 = ORIENTED_EDGE ( 'NONE', *, *, #29, .T. ) ;
#83 = FACE_BOUND ( 'NONE', #241, .T. ) ;
#84 = ORIENTED_EDGE ( 'NONE', *, *, #126, .T. ) ;
#85 = UNCERTAINTY_MEASURE_WITH_UNIT (LENGTH_MEASURE( 1.000000000000000082E-05 ), #321, 'distance_accuracy_value', 'NONE');
#86 = EDGE_LOOP ( 'NONE', ( #301, #220, #120, #31 ) ) ;
#87 = ADVANCED_FACE ( 'NONE', ( #90 ), #326, .F. ) ;
#88 = ORIENTED_EDGE ( 'NONE', *, *, #55, .F. ) ;
#89 = ADVANCED_BREP_SHAPE_REPRESENTATION ( 'MS2003', ( #307, #178 ), #234 ) ;
#90 = FACE_OUTER_BOUND ( 'NONE', #112, .T. ) ;
#91 = DIRECTION ( 'NONE',  ( 1.000000000000000000, 1.662451503328549287E-16, 0.000000000000000000 ) ) ;
#92 = AXIS2_PLACEMENT_3D ( 'NONE', #3, #314, #219 ) ;
#93 = AXIS2_PLACEMENT_3D ( 'NONE', #98, #298, #279 ) ;
#94 = PRODUCT ( 'MS2003', 'MS2003', '', ( #13 ) ) ;
#95 = CARTESIAN_POINT ( 'NONE',  ( -2.977134233393009972E-18, -0.1874999999999998890, 0.000000000000000000 ) ) ;
#96 = EDGE_CURVE ( 'NONE', #124, #57, #18, .T. ) ;
#97 = ORIENTED_EDGE ( 'NONE', *, *, #126, .F. ) ;
#98 = CARTESIAN_POINT ( 'NONE',  ( -3.414809992080330256E-17, 1.024442997624098707E-16, 0.000000000000000000 ) ) ;
#99 = DIMENSIONAL_EXPONENTS ( 1.000000000000000000, 0.000000000000000000, 0.000000000000000000, 0.000000000000000000, 0.000000000000000000, 0.000000000000000000, 0.000000000000000000 ) ;
#100 = CIRCLE ( 'NONE', #311, 0.5202499999999999902 ) ;
#101 = APPLICATION_CONTEXT ( 'automotive_design' ) ;
#102 = CARTESIAN_POINT ( 'NONE',  ( -0.5202499999999999902, 8.707089748683277584E-18, 0.000000000000000000 ) ) ;
#103 = DIRECTION ( 'NONE',  ( 1.662451503328549287E-16, -1.000000000000000000, -0.000000000000000000 ) ) ;
#104 = LINE ( 'NONE', #312, #215 ) ;
#105 = CARTESIAN_POINT ( 'NONE',  ( 0.6250000000000000000, -0.2054080967320380535, 0.000000000000000000 ) ) ;
#106 =( NAMED_UNIT ( * ) SI_UNIT ( $, .STERADIAN. ) SOLID_ANGLE_UNIT ( ) );
#107 = EDGE_CURVE ( 'NONE', #266, #8, #285, .T. ) ;
#108 = EDGE_LOOP ( 'NONE', ( #116, #174, #4, #319 ) ) ;
#109 = CIRCLE ( 'NONE', #93, 0.5202499999999999902 ) ;
#110 = EDGE_LOOP ( 'NONE', ( #81, #317, #296, #322 ) ) ;
#111 = LENGTH_MEASURE_WITH_UNIT ( LENGTH_MEASURE( 0.02539999999999999897 ), #217 );
#112 = EDGE_LOOP ( 'NONE', ( #125, #171, #262, #97 ) ) ;
#113 =( NAMED_UNIT ( * ) PLANE_ANGLE_UNIT ( ) SI_UNIT ( $, .RADIAN. ) );
#114 = ORIENTED_EDGE ( 'NONE', *, *, #212, .F. ) ;
#115 = ADVANCED_FACE ( 'NONE', ( #305 ), #257, .T. ) ;
#116 = ORIENTED_EDGE ( 'NONE', *, *, #333, .T. ) ;
#117 = EDGE_LOOP ( 'NONE', ( #191, #264 ) ) ;
#118 = CARTESIAN_POINT ( 'NONE',  ( -3.414809992080330256E-17, 1.024442997624098707E-16, 0.000000000000000000 ) ) ;
#119 = ADVANCED_FACE ( 'NONE', ( #127 ), #180, .T. ) ;
#120 = ORIENTED_EDGE ( 'NONE', *, *, #261, .T. ) ;
#121 =( GEOMETRIC_REPRESENTATION_CONTEXT ( 3 ) GLOBAL_UNCERTAINTY_ASSIGNED_CONTEXT ( ( #309 ) ) GLOBAL_UNIT_ASSIGNED_CONTEXT ( ( #5, #113, #106 ) ) REPRESENTATION_CONTEXT ( 'NONE', 'WORKASPACE' ) );
#122 = ADVANCED_FACE ( 'NONE', ( #209 ), #133, .T. ) ;
#123 = VECTOR ( 'NONE', #146, 39.37007874015748143 ) ;
#124 = VERTEX_POINT ( 'NONE', #230 ) ;
#125 = ORIENTED_EDGE ( 'NONE', *, *, #281, .T. ) ;
#126 = EDGE_CURVE ( 'NONE', #223, #6, #104, .T. ) ;
#127 = FACE_OUTER_BOUND ( 'NONE', #110, .T. ) ;
#128 = AXIS2_PLACEMENT_3D ( 'NONE', #306, #233, #308 ) ;
#129 = AXIS2_PLACEMENT_3D ( 'NONE', #118, #225, #91 ) ;
#130 = DIRECTION ( 'NONE',  ( 1.662451503328549287E-16, -1.000000000000000000, -0.000000000000000000 ) ) ;
#131 = CARTESIAN_POINT ( 'NONE',  ( -0.5024999999999999467, -1.524198820065302275E-17, 0.000000000000000000 ) ) ;
#132 = DIRECTION ( 'NONE',  ( 1.662451503328549287E-16, -1.000000000000000000, -0.000000000000000000 ) ) ;
#133 = CYLINDRICAL_SURFACE ( 'NONE', #304, 0.6250000000000000000 ) ;
#134 = ORIENTED_EDGE ( 'NONE', *, *, #281, .F. ) ;
#135 = PRODUCT_DEFINITION ( 'UNKNOWN', '', #238, #169 ) ;
#136 = LENGTH_MEASURE_WITH_UNIT ( LENGTH_MEASURE( 0.02539999999999999897 ), #242 );
#137 = ORIENTED_EDGE ( 'NONE', *, *, #268, .F. ) ;
#138 = CONICAL_SURFACE ( 'NONE', #206, 0.5024999999999999467, 0.3689595462058566366 ) ;
#139 = CARTESIAN_POINT ( 'NONE',  ( -0.5202499999999999902, -0.1874999999999999722, 6.371224972564104819E-17 ) ) ;
#140 = ORIENTED_EDGE ( 'NONE', *, *, #55, .T. ) ;
#141 = FACE_OUTER_BOUND ( 'NONE', #164, .T. ) ;
#142 = SURFACE_STYLE_USAGE ( .BOTH. , #56 ) ;
#143 = EDGE_LOOP ( 'NONE', ( #36, #236 ) ) ;
#144 = CIRCLE ( 'NONE', #48, 0.6250000000000000000 ) ;
#145 = VECTOR ( 'NONE', #330, 39.37007874015748143 ) ;
#146 = DIRECTION ( 'NONE',  ( 1.662451503328549287E-16, -1.000000000000000000, -0.000000000000000000 ) ) ;
#147 = EDGE_CURVE ( 'NONE', #57, #297, #28, .T. ) ;
#148 = ORIENTED_EDGE ( 'NONE', *, *, #147, .F. ) ;
#149 = DIRECTION ( 'NONE',  ( 1.000000000000000000, 0.000000000000000000, 0.000000000000000000 ) ) ;
#150 = ORIENTED_EDGE ( 'NONE', *, *, #268, .T. ) ;
#151 = CARTESIAN_POINT ( 'NONE',  ( -3.414809992080330256E-17, 1.024442997624098707E-16, 0.000000000000000000 ) ) ;
#152 = AXIS2_PLACEMENT_3D ( 'NONE', #26, #103, #155 ) ;
#153 = DIMENSIONAL_EXPONENTS ( 1.000000000000000000, 0.000000000000000000, 0.000000000000000000, 0.000000000000000000, 0.000000000000000000, 0.000000000000000000, 0.000000000000000000 ) ;
#154 = DIRECTION ( 'NONE',  ( 1.662451503328549287E-16, -1.000000000000000000, -0.000000000000000000 ) ) ;
#155 = DIRECTION ( 'NONE',  ( 1.000000000000000000, 1.359128355056847446E-16, 0.000000000000000000 ) ) ;
#156 = DIRECTION ( 'NONE',  ( 1.662451503328549287E-16, -1.000000000000000000, -0.000000000000000000 ) ) ;
#157 = VECTOR ( 'NONE', #248, 39.37007874015748854 ) ;
#158 = CARTESIAN_POINT ( 'NONE',  ( 0.000000000000000000, -0.2054080967320381645, 0.000000000000000000 ) ) ;
#159 = DIRECTION ( 'NONE',  ( 1.000000000000000000, 1.359128355056847446E-16, 0.000000000000000000 ) ) ;
#160 = ADVANCED_FACE ( 'NONE', ( #50, #331 ), #284, .F. ) ;
#161 = DIRECTION ( 'NONE',  ( 1.000000000000000000, 1.639108796198557931E-16, 0.000000000000000000 ) ) ;
#162 = FILL_AREA_STYLE_COLOUR ( '', #325 ) ;
#163 = ORIENTED_EDGE ( 'NONE', *, *, #2, .T. ) ;
#164 = EDGE_LOOP ( 'NONE', ( #82, #61 ) ) ;
#165 = VECTOR ( 'NONE', #156, 39.37007874015748143 ) ;
#166 = AXIS2_PLACEMENT_3D ( 'NONE', #95, #154, #228 ) ;
#167 = PRESENTATION_STYLE_ASSIGNMENT (( #142 ) ) ;
#168 = ORIENTED_EDGE ( 'NONE', *, *, #329, .F. ) ;
#169 = PRODUCT_DEFINITION_CONTEXT ( 'detailed design', #318, 'design' ) ;
#170 =( NAMED_UNIT ( * ) SI_UNIT ( $, .STERADIAN. ) SOLID_ANGLE_UNIT ( ) );
#171 = ORIENTED_EDGE ( 'NONE', *, *, #20, .T. ) ;
#172 = EDGE_LOOP ( 'NONE', ( #148, #53, #163, #10 ) ) ;
#173 = DIRECTION ( 'NONE',  ( -1.662451503328549287E-16, 1.000000000000000000, 0.000000000000000000 ) ) ;
#174 = ORIENTED_EDGE ( 'NONE', *, *, #46, .T. ) ;
#175 = PLANE ( 'NONE',  #216 ) ;
#176 = CARTESIAN_POINT ( 'NONE',  ( -0.6250000000000000000, -1.458919195624453587E-18, 7.654042494670957853E-17 ) ) ;
#177 = EDGE_CURVE ( 'NONE', #297, #260, #100, .T. ) ;
#178 = AXIS2_PLACEMENT_3D ( 'NONE', #274, #16, #149 ) ;
#179 = DIRECTION ( 'NONE',  ( -1.662451503328549287E-16, 1.000000000000000000, 0.000000000000000000 ) ) ;
#180 = CYLINDRICAL_SURFACE ( 'NONE', #290, 0.5202499999999999902 ) ;
#181 = CARTESIAN_POINT ( 'NONE',  ( -0.5202499999999999902, -0.2054080967320382756, 6.371224972564104819E-17 ) ) ;
#182 = CIRCLE ( 'NONE', #152, 0.5024999999999999467 ) ;
#183 = AXIS2_PLACEMENT_3D ( 'NONE', #202, #334, #231 ) ;
#184 = FACE_OUTER_BOUND ( 'NONE', #33, .T. ) ;
#185 = DIRECTION ( 'NONE',  ( 1.000000000000000000, 1.781639995867997998E-16, 0.000000000000000000 ) ) ;
#186 = PRODUCT_DEFINITION_SHAPE ( 'NONE', 'NONE',  #135 ) ;
#187 = AXIS2_PLACEMENT_3D ( 'NONE', #254, #232, #207 ) ;
#188 = CLOSED_SHELL ( 'NONE', ( #72, #87, #122, #119, #320, #286, #160, #115, #58, #310, #256 ) ) ;
#189 = ORIENTED_EDGE ( 'NONE', *, *, #276, .T. ) ;
#190 = CARTESIAN_POINT ( 'NONE',  ( -0.5024999999999999467, -0.1874999999999999722, 0.000000000000000000 ) ) ;
#191 = ORIENTED_EDGE ( 'NONE', *, *, #333, .F. ) ;
#192 = DIRECTION ( 'NONE',  ( -1.000000000000000000, -1.662451503328549287E-16, 0.000000000000000000 ) ) ;
#193 = ORIENTED_EDGE ( 'NONE', *, *, #63, .T. ) ;
#194 = CIRCLE ( 'NONE', #128, 0.5749999999999999556 ) ;
#195 =( NAMED_UNIT ( * ) PLANE_ANGLE_UNIT ( ) SI_UNIT ( $, .RADIAN. ) );
#196 = ORIENTED_EDGE ( 'NONE', *, *, #221, .F. ) ;
#197 = ORIENTED_EDGE ( 'NONE', *, *, #212, .T. ) ;
#198 = CARTESIAN_POINT ( 'NONE',  ( -3.414809992080330256E-17, 6.829619984160658046E-17, 0.000000000000000000 ) ) ;
#199 = EDGE_CURVE ( 'NONE', #6, #294, #194, .T. ) ;
#200 = VECTOR ( 'NONE', #213, 39.37007874015748143 ) ;
#201 = CIRCLE ( 'NONE', #49, 0.5024999999999999467 ) ;
#202 = CARTESIAN_POINT ( 'NONE',  ( -6.531906560821360939E-17, 0.1875000000000001388, 0.000000000000000000 ) ) ;
#203 = EDGE_LOOP ( 'NONE', ( #222, #189 ) ) ;
#204 = DIRECTION ( 'NONE',  ( 1.000000000000000000, 1.359128355056847446E-16, 0.000000000000000000 ) ) ;
#205 = CYLINDRICAL_SURFACE ( 'NONE', #300, 0.5024999999999999467 ) ;
#206 = AXIS2_PLACEMENT_3D ( 'NONE', #9, #289, #192 ) ;
#207 = DIRECTION ( 'NONE',  ( 1.000000000000000000, 1.662451503328549287E-16, 0.000000000000000000 ) ) ;
#208 = DIRECTION ( 'NONE',  ( 1.000000000000000000, 1.969135987744543397E-16, 0.000000000000000000 ) ) ;
#209 = FACE_OUTER_BOUND ( 'NONE', #108, .T. ) ;
#210 = CIRCLE ( 'NONE', #187, 0.6250000000000000000 ) ;
#211 = CARTESIAN_POINT ( 'NONE',  ( -6.531906560821360939E-17, 0.1875000000000000833, 0.000000000000000000 ) ) ;
#212 = EDGE_CURVE ( 'NONE', #19, #223, #79, .T. ) ;
#213 = DIRECTION ( 'NONE',  ( 1.662451503328549287E-16, -1.000000000000000000, -0.000000000000000000 ) ) ;
#214 = ORIENTED_EDGE ( 'NONE', *, *, #276, .F. ) ;
#215 = VECTOR ( 'NONE', #74, 39.37007874015748854 ) ;
#216 = AXIS2_PLACEMENT_3D ( 'NONE', #224, #328, #277 ) ;
#217 =( LENGTH_UNIT ( ) NAMED_UNIT ( * ) SI_UNIT ( $, .METRE. ) );
#218 = ORIENTED_EDGE ( 'NONE', *, *, #237, .T. ) ;
#219 = DIRECTION ( 'NONE',  ( 1.000000000000000000, 1.969135987744543397E-16, 0.000000000000000000 ) ) ;
#220 = ORIENTED_EDGE ( 'NONE', *, *, #107, .T. ) ;
#221 = EDGE_CURVE ( 'NONE', #44, #60, #182, .T. ) ;
#222 = ORIENTED_EDGE ( 'NONE', *, *, #199, .T. ) ;
#223 = VERTEX_POINT ( 'NONE', #131 ) ;
#224 = CARTESIAN_POINT ( 'NONE',  ( -0.5750000000000000666, 0.1875000000000000278, 0.000000000000000000 ) ) ;
#225 = DIRECTION ( 'NONE',  ( 1.662451503328549287E-16, -1.000000000000000000, -0.000000000000000000 ) ) ;
#226 = PRESENTATION_LAYER_ASSIGNMENT (  '', '', ( #12 ) ) ;
#227 = EDGE_LOOP ( 'NONE', ( #218, #193 ) ) ;
#228 = DIRECTION ( 'NONE',  ( 1.000000000000000000, 1.969135987744543397E-16, 0.000000000000000000 ) ) ;
#229 = CARTESIAN_POINT ( 'NONE',  ( 0.5024999999999999467, -0.1874999999999998335, 0.000000000000000000 ) ) ;
#230 = CARTESIAN_POINT ( 'NONE',  ( 0.5202499999999999902, 1.889333392230776521E-16, 0.000000000000000000 ) ) ;
#231 = DIRECTION ( 'NONE',  ( 1.000000000000000000, 1.639108796198557931E-16, 0.000000000000000000 ) ) ;
#232 = DIRECTION ( 'NONE',  ( 1.662451503328549287E-16, -1.000000000000000000, -0.000000000000000000 ) ) ;
#233 = DIRECTION ( 'NONE',  ( 1.662451503328549287E-16, -1.000000000000000000, -0.000000000000000000 ) ) ;
#234 =( GEOMETRIC_REPRESENTATION_CONTEXT ( 3 ) GLOBAL_UNCERTAINTY_ASSIGNED_CONTEXT ( ( #85 ) ) GLOBAL_UNIT_ASSIGNED_CONTEXT ( ( #321, #195, #170 ) ) REPRESENTATION_CONTEXT ( 'NONE', 'WORKASPACE' ) );
#235 = CARTESIAN_POINT ( 'NONE',  ( -2.977134233393009972E-18, -0.1874999999999998890, 0.000000000000000000 ) ) ;
#236 = ORIENTED_EDGE ( 'NONE', *, *, #67, .F. ) ;
#237 = EDGE_CURVE ( 'NONE', #66, #11, #210, .T. ) ;
#238 = PRODUCT_DEFINITION_FORMATION_WITH_SPECIFIED_SOURCE ( 'ANY', '', #94, .NOT_KNOWN. ) ;
#239 = CIRCLE ( 'NONE', #166, 0.5202499999999999902 ) ;
#240 = DIRECTION ( 'NONE',  ( -1.000000000000000000, -1.662451503328549287E-16, 0.000000000000000000 ) ) ;
#241 = EDGE_LOOP ( 'NONE', ( #196, #88 ) ) ;
#242 =( LENGTH_UNIT ( ) NAMED_UNIT ( * ) SI_UNIT ( $, .METRE. ) );
#243 = EDGE_LOOP ( 'NONE', ( #293, #197, #84, #214 ) ) ;
#244 = DIRECTION ( 'NONE',  ( 1.000000000000000000, 1.639108796198557931E-16, 0.000000000000000000 ) ) ;
#245 = CARTESIAN_POINT ( 'NONE',  ( 0.5024999999999998357, 1.518343878838661929E-16, 6.153850165715447949E-17 ) ) ;
#246 = APPLICATION_PROTOCOL_DEFINITION ( 'draft international standard', 'automotive_design', 1998, #318 ) ;
#247 = ORIENTED_EDGE ( 'NONE', *, *, #329, .T. ) ;
#248 = DIRECTION ( 'NONE',  ( 0.3606451928835534004, 0.9327030850436726084, 4.416629810927236848E-17 ) ) ;
#249 = AXIS2_PLACEMENT_3D ( 'NONE', #190, #263, #240 ) ;
#250 = DIRECTION ( 'NONE',  ( 1.000000000000000000, 1.662451503328549287E-16, 0.000000000000000000 ) ) ;
#251 = LINE ( 'NONE', #245, #157 ) ;
#252 = DIRECTION ( 'NONE',  ( 1.662451503328549287E-16, -1.000000000000000000, -0.000000000000000000 ) ) ;
#253 = CARTESIAN_POINT ( 'NONE',  ( -0.6250000000000000000, 0.1875000000000000555, 7.654042494670957853E-17 ) ) ;
#254 = CARTESIAN_POINT ( 'NONE',  ( -3.414809992080330256E-17, 1.024442997624098707E-16, 0.000000000000000000 ) ) ;
#255 = CARTESIAN_POINT ( 'NONE',  ( 0.5202499999999999902, -0.1874999999999997780, 0.000000000000000000 ) ) ;
#256 = ADVANCED_FACE ( 'NONE', ( #184 ), #205, .F. ) ;
#257 = CYLINDRICAL_SURFACE ( 'NONE', #291, 0.6250000000000000000 ) ;
#258 = CIRCLE ( 'NONE', #65, 0.5024999999999999467 ) ;
#259 = SURFACE_STYLE_FILL_AREA ( #35 ) ;
#260 = VERTEX_POINT ( 'NONE', #255 ) ;
#261 = EDGE_CURVE ( 'NONE', #8, #66, #335, .T. ) ;
#262 = ORIENTED_EDGE ( 'NONE', *, *, #199, .F. ) ;
#263 = DIRECTION ( 'NONE',  ( -1.662451503328549287E-16, 1.000000000000000000, 0.000000000000000000 ) ) ;
#264 = ORIENTED_EDGE ( 'NONE', *, *, #107, .F. ) ;
#265 = FACE_OUTER_BOUND ( 'NONE', #172, .T. ) ;
#266 = VERTEX_POINT ( 'NONE', #253 ) ;
#267 = FACE_OUTER_BOUND ( 'NONE', #243, .T. ) ;
#268 = EDGE_CURVE ( 'NONE', #223, #60, #47, .T. ) ;
#269 = DIRECTION ( 'NONE',  ( 1.662451503328549287E-16, -1.000000000000000000, -0.000000000000000000 ) ) ;
#270 = VECTOR ( 'NONE', #25, 39.37007874015748143 ) ;
#271 = AXIS2_PLACEMENT_3D ( 'NONE', #64, #269, #323 ) ;
#272 = APPLICATION_PROTOCOL_DEFINITION ( 'draft international standard', 'automotive_design', 1998, #101 ) ;
#273 = FACE_BOUND ( 'NONE', #203, .T. ) ;
#274 = CARTESIAN_POINT ( 'NONE',  ( 0.000000000000000000, 0.000000000000000000, 0.000000000000000000 ) ) ;
#275 = CARTESIAN_POINT ( 'NONE',  ( 0.5202499999999999902, -0.2054080967320380535, 0.000000000000000000 ) ) ;
#276 = EDGE_CURVE ( 'NONE', #294, #6, #315, .T. ) ;
#277 = DIRECTION ( 'NONE',  ( 1.000000000000000000, 1.662451503328549287E-16, 0.000000000000000000 ) ) ;
#278 = MECHANICAL_DESIGN_GEOMETRIC_PRESENTATION_REPRESENTATION (  '', ( #12 ), #121 ) ;
#279 = DIRECTION ( 'NONE',  ( 1.000000000000000000, 1.662451503328549287E-16, 0.000000000000000000 ) ) ;
#280 = DIRECTION ( 'NONE',  ( 1.000000000000000000, 1.662451503328549534E-16, 0.000000000000000000 ) ) ;
#281 = EDGE_CURVE ( 'NONE', #223, #19, #258, .T. ) ;
#282 = CARTESIAN_POINT ( 'NONE',  ( -3.414809992080330256E-17, 6.829619984160658046E-17, 0.000000000000000000 ) ) ;
#283 = AXIS2_PLACEMENT_3D ( 'NONE', #102, #179, #1 ) ;
#284 = PLANE ( 'NONE',  #283 ) ;
#285 = CIRCLE ( 'NONE', #183, 0.6250000000000000000 ) ;
#286 = ADVANCED_FACE ( 'NONE', ( #265 ), #32, .T. ) ;
#287 = DIRECTION ( 'NONE',  ( 1.000000000000000000, 1.969135987744543397E-16, 0.000000000000000000 ) ) ;
#288 = CARTESIAN_POINT ( 'NONE',  ( -3.414809992080330256E-17, 6.829619984160658046E-17, 0.000000000000000000 ) ) ;
#289 = DIRECTION ( 'NONE',  ( -1.662451503328549287E-16, 1.000000000000000000, 0.000000000000000000 ) ) ;
#290 = AXIS2_PLACEMENT_3D ( 'NONE', #332, #313, #208 ) ;
#291 = AXIS2_PLACEMENT_3D ( 'NONE', #158, #252, #23 ) ;
#292 = DIRECTION ( 'NONE',  ( 1.662451503328549287E-16, -1.000000000000000000, -0.000000000000000000 ) ) ;
#293 = ORIENTED_EDGE ( 'NONE', *, *, #20, .F. ) ;
#294 = VERTEX_POINT ( 'NONE', #7 ) ;
#295 = LINE ( 'NONE', #59, #200 ) ;
#296 = ORIENTED_EDGE ( 'NONE', *, *, #29, .F. ) ;
#297 = VERTEX_POINT ( 'NONE', #139 ) ;
#298 = DIRECTION ( 'NONE',  ( 1.662451503328549287E-16, -1.000000000000000000, -0.000000000000000000 ) ) ;
#299 = CARTESIAN_POINT ( 'NONE',  ( -0.6250000000000000000, -0.2054080967320382756, 7.654042494670957853E-17 ) ) ;
#300 = AXIS2_PLACEMENT_3D ( 'NONE', #73, #51, #159 ) ;
#301 = ORIENTED_EDGE ( 'NONE', *, *, #46, .F. ) ;
#302 = CARTESIAN_POINT ( 'NONE',  ( -0.5202500000000001013, 1.595526030174208309E-17, 6.371224972564106052E-17 ) ) ;
#303 = CARTESIAN_POINT ( 'NONE',  ( 0.6250000000000000000, 2.063475187204441857E-16, 0.000000000000000000 ) ) ;
#304 = AXIS2_PLACEMENT_3D ( 'NONE', #71, #132, #161 ) ;
#305 = FACE_OUTER_BOUND ( 'NONE', #86, .T. ) ;
#306 = CARTESIAN_POINT ( 'NONE',  ( -6.531906560821360939E-17, 0.1875000000000000833, 0.000000000000000000 ) ) ;
#307 = MANIFOLD_SOLID_BREP ( 'Revolve1', #188 ) ;
#308 = DIRECTION ( 'NONE',  ( 1.000000000000000000, 1.781639995867997998E-16, 0.000000000000000000 ) ) ;
#309 = UNCERTAINTY_MEASURE_WITH_UNIT (LENGTH_MEASURE( 1.000000000000000082E-05 ), #5, 'distance_accuracy_value', 'NONE');
#310 = ADVANCED_FACE ( 'NONE', ( #267 ), #138, .F. ) ;
#311 = AXIS2_PLACEMENT_3D ( 'NONE', #235, #78, #287 ) ;
#312 = CARTESIAN_POINT ( 'NONE',  ( -0.5024999999999999467, -1.524198820065300735E-17, 0.000000000000000000 ) ) ;
#313 = DIRECTION ( 'NONE',  ( 1.662451503328549287E-16, -1.000000000000000000, -0.000000000000000000 ) ) ;
#314 = DIRECTION ( 'NONE',  ( 1.662451503328549287E-16, -1.000000000000000000, -0.000000000000000000 ) ) ;
#315 = CIRCLE ( 'NONE', #75, 0.5749999999999999556 ) ;
#316 = PLANE ( 'NONE',  #249 ) ;
#317 = ORIENTED_EDGE ( 'NONE', *, *, #147, .T. ) ;
#318 = APPLICATION_CONTEXT ( 'automotive_design' ) ;
#319 = ORIENTED_EDGE ( 'NONE', *, *, #261, .F. ) ;
#320 = ADVANCED_FACE ( 'NONE', ( #83, #141 ), #316, .F. ) ;
#321 =( CONVERSION_BASED_UNIT ( 'INCH', #136 ) LENGTH_UNIT ( ) NAMED_UNIT ( #153 ) );
#322 = ORIENTED_EDGE ( 'NONE', *, *, #2, .F. ) ;
#323 = DIRECTION ( 'NONE',  ( 1.000000000000000000, 1.359128355056847446E-16, 0.000000000000000000 ) ) ;
#324 = DIRECTION ( 'NONE',  ( 1.662451503328549287E-16, -1.000000000000000000, -0.000000000000000000 ) ) ;
#325 = COLOUR_RGB ( '',0.7921568627450980005, 0.8196078431372548767, 0.9333333333333333481 ) ;
#326 = CONICAL_SURFACE ( 'NONE', #76, 0.5024999999999999467, 0.3689595462058566366 ) ;
#327 = CARTESIAN_POINT ( 'NONE',  ( 0.5024999999999998357, 1.518343878838661929E-16, 6.597784630406364045E-17 ) ) ;
#328 = DIRECTION ( 'NONE',  ( 1.662451503328549287E-16, -1.000000000000000000, -0.000000000000000000 ) ) ;
#329 = EDGE_CURVE ( 'NONE', #19, #44, #295, .T. ) ;
#330 = DIRECTION ( 'NONE',  ( 1.662451503328549287E-16, -1.000000000000000000, -0.000000000000000000 ) ) ;
#331 = FACE_OUTER_BOUND ( 'NONE', #227, .T. ) ;
#332 = CARTESIAN_POINT ( 'NONE',  ( 0.000000000000000000, -0.2054080967320381645, 0.000000000000000000 ) ) ;
#333 = EDGE_CURVE ( 'NONE', #8, #266, #144, .T. ) ;
#334 = DIRECTION ( 'NONE',  ( 1.662451503328549287E-16, -1.000000000000000000, -0.000000000000000000 ) ) ;
#335 = LINE ( 'NONE', #105, #165 ) ;
ENDSEC;
END-ISO-10303-21;
