ISO-10303-21;
HEADER;
FILE_DESCRIPTION (( 'STEP AP214' ),
    '1' );
FILE_NAME ('MS1021.STEP',
    '2023-05-11T17:38:39',
    ( '' ),
    ( '' ),
    'SwSTEP 2.0',
    'SolidWorks 2022',
    '' );
FILE_SCHEMA (( 'AUTOMOTIVE_DESIGN' ));
ENDSEC;

DATA;
#1 = ADVANCED_FACE ( 'NONE', ( #153, #250 ), #270, .F. ) ;
#2 = CYLINDRICAL_SURFACE ( 'NONE', #223, 3.000000000000000444 ) ;
#3 = STYLED_ITEM ( 'NONE', ( #230 ), #371 ) ;
#4 = CARTESIAN_POINT ( 'NONE',  ( 0.000000000000000000, 0.000000000000000000, 5.500000000000000000 ) ) ;
#5 = CARTESIAN_POINT ( 'NONE',  ( -3.000000000000000444, 3.673940397442060361E-16, 5.500000000000000000 ) ) ;
#6 = ORIENTED_EDGE ( 'NONE', *, *, #274, .F. ) ;
#7 = CIRCLE ( 'NONE', #285, 3.000000000000000444 ) ;
#8 = ORIENTED_EDGE ( 'NONE', *, *, #34, .T. ) ;
#9 = DIRECTION ( 'NONE',  ( 1.000000000000000000, 0.000000000000000000, 0.000000000000000000 ) ) ;
#10 = AXIS2_PLACEMENT_3D ( 'NONE', #198, #76, #138 ) ;
#11 = ADVANCED_FACE ( 'NONE', ( #64 ), #348, .T. ) ;
#12 = ORIENTED_EDGE ( 'NONE', *, *, #260, .F. ) ;
#13 = DIRECTION ( 'NONE',  ( -0.000000000000000000, -0.000000000000000000, -1.000000000000000000 ) ) ;
#14 = VERTEX_POINT ( 'NONE', #192 ) ;
#15 = AXIS2_PLACEMENT_3D ( 'NONE', #165, #284, #313 ) ;
#16 = CARTESIAN_POINT ( 'NONE',  ( 0.000000000000000000, 0.000000000000000000, 0.000000000000000000 ) ) ;
#17 = FACE_BOUND ( 'NONE', #300, .T. ) ;
#18 = DIRECTION ( 'NONE',  ( 1.000000000000000000, 0.000000000000000000, 0.000000000000000000 ) ) ;
#19 = ORIENTED_EDGE ( 'NONE', *, *, #157, .F. ) ;
#20 = DIRECTION ( 'NONE',  ( 1.000000000000000000, 0.000000000000000000, 0.000000000000000000 ) ) ;
#21 = CARTESIAN_POINT ( 'NONE',  ( 0.000000000000000000, 0.000000000000000000, -1.500000000000000000 ) ) ;
#22 = VERTEX_POINT ( 'NONE', #283 ) ;
#23 = CYLINDRICAL_SURFACE ( 'NONE', #58, 5.999999999999999112 ) ;
#24 = EDGE_LOOP ( 'NONE', ( #290, #385, #312, #164 ) ) ;
#25 = ORIENTED_EDGE ( 'NONE', *, *, #274, .T. ) ;
#26 = DIRECTION ( 'NONE',  ( 1.000000000000000000, 0.000000000000000000, 0.000000000000000000 ) ) ;
#27 = DIRECTION ( 'NONE',  ( -0.000000000000000000, 0.000000000000000000, 1.000000000000000000 ) ) ;
#28 = DIRECTION ( 'NONE',  ( 0.000000000000000000, 0.000000000000000000, 1.000000000000000000 ) ) ;
#29 =( NAMED_UNIT ( * ) PLANE_ANGLE_UNIT ( ) SI_UNIT ( $, .RADIAN. ) );
#30 = VECTOR ( 'NONE', #74, 1000.000000000000000 ) ;
#31 = CIRCLE ( 'NONE', #89, 3.000000000000000444 ) ;
#32 = EDGE_CURVE ( 'NONE', #48, #227, #337, .T. ) ;
#33 = PRODUCT ( 'MS1021', 'MS1021', '', ( #307 ) ) ;
#34 = EDGE_CURVE ( 'NONE', #277, #14, #39, .T. ) ;
#35 = AXIS2_PLACEMENT_3D ( 'NONE', #114, #27, #365 ) ;
#36 = EDGE_CURVE ( 'NONE', #14, #277, #314, .T. ) ;
#37 = APPLICATION_CONTEXT ( 'automotive_design' ) ;
#38 = EDGE_LOOP ( 'NONE', ( #19, #135, #8, #345 ) ) ;
#39 = CIRCLE ( 'NONE', #276, 3.000000000000000444 ) ;
#40 = DIRECTION ( 'NONE',  ( 1.000000000000000000, 0.000000000000000000, 0.000000000000000000 ) ) ;
#41 = DIRECTION ( 'NONE',  ( 1.000000000000000000, 0.000000000000000000, 0.000000000000000000 ) ) ;
#42 = CARTESIAN_POINT ( 'NONE',  ( 4.833679251964357881, 3.554651162790703367, 0.000000000000000000 ) ) ;
#43 = CARTESIAN_POINT ( 'NONE',  ( -4.833679251964359658, 3.554651162790696706, 0.000000000000000000 ) ) ;
#44 = DIRECTION ( 'NONE',  ( 1.000000000000000000, 0.000000000000000000, 0.000000000000000000 ) ) ;
#45 = ORIENTED_EDGE ( 'NONE', *, *, #215, .F. ) ;
#46 = DIRECTION ( 'NONE',  ( 1.000000000000000000, 0.000000000000000000, 0.000000000000000000 ) ) ;
#47 = DIRECTION ( 'NONE',  ( 1.000000000000000000, 0.000000000000000000, 0.000000000000000000 ) ) ;
#48 = VERTEX_POINT ( 'NONE', #42 ) ;
#49 = DIRECTION ( 'NONE',  ( 1.000000000000000000, 0.000000000000000000, 0.000000000000000000 ) ) ;
#50 = CYLINDRICAL_SURFACE ( 'NONE', #239, 34.00000000000000000 ) ;
#51 = ORIENTED_EDGE ( 'NONE', *, *, #122, .T. ) ;
#52 = SURFACE_STYLE_FILL_AREA ( #383 ) ;
#53 = ORIENTED_EDGE ( 'NONE', *, *, #294, .T. ) ;
#54 = EDGE_CURVE ( 'NONE', #229, #48, #160, .T. ) ;
#55 = EDGE_LOOP ( 'NONE', ( #354, #352, #146, #6 ) ) ;
#56 = CARTESIAN_POINT ( 'NONE',  ( 0.000000000000000000, 0.000000000000000000, -1.500000000000000000 ) ) ;
#57 = FACE_OUTER_BOUND ( 'NONE', #265, .T. ) ;
#58 = AXIS2_PLACEMENT_3D ( 'NONE', #179, #77, #170 ) ;
#59 = EDGE_CURVE ( 'NONE', #22, #151, #369, .T. ) ;
#60 = CARTESIAN_POINT ( 'NONE',  ( -4.833679251964359658, 3.554651162790696706, 5.500000000000000000 ) ) ;
#61 = AXIS2_PLACEMENT_3D ( 'NONE', #21, #28, #268 ) ;
#62 = PRESENTATION_STYLE_ASSIGNMENT (( #341 ) ) ;
#63 = ORIENTED_EDGE ( 'NONE', *, *, #157, .T. ) ;
#64 = FACE_OUTER_BOUND ( 'NONE', #140, .T. ) ;
#65 = CARTESIAN_POINT ( 'NONE',  ( 0.000000000000000000, 0.000000000000000000, 5.500000000000000000 ) ) ;
#66 = ORIENTED_EDGE ( 'NONE', *, *, #272, .F. ) ;
#67 = DIRECTION ( 'NONE',  ( -0.000000000000000000, 0.000000000000000000, 1.000000000000000000 ) ) ;
#68 = DIRECTION ( 'NONE',  ( 0.000000000000000000, 0.000000000000000000, 1.000000000000000000 ) ) ;
#69 = ORIENTED_EDGE ( 'NONE', *, *, #399, .T. ) ;
#70 = AXIS2_PLACEMENT_3D ( 'NONE', #16, #382, #315 ) ;
#71 = CARTESIAN_POINT ( 'NONE',  ( 0.000000000000000000, 0.000000000000000000, 0.000000000000000000 ) ) ;
#72 = DIRECTION ( 'NONE',  ( -1.000000000000000000, 0.000000000000000000, 0.000000000000000000 ) ) ;
#73 = EDGE_LOOP ( 'NONE', ( #295, #388 ) ) ;
#74 = DIRECTION ( 'NONE',  ( -0.000000000000000000, -0.000000000000000000, -1.000000000000000000 ) ) ;
#75 = ORIENTED_EDGE ( 'NONE', *, *, #242, .T. ) ;
#76 = DIRECTION ( 'NONE',  ( -0.000000000000000000, 0.000000000000000000, 1.000000000000000000 ) ) ;
#77 = DIRECTION ( 'NONE',  ( -0.000000000000000000, -0.000000000000000000, -1.000000000000000000 ) ) ;
#78 = EDGE_CURVE ( 'NONE', #85, #384, #386, .T. ) ;
#79 = ORIENTED_EDGE ( 'NONE', *, *, #272, .T. ) ;
#80 = DIRECTION ( 'NONE',  ( -0.000000000000000000, 0.000000000000000000, 1.000000000000000000 ) ) ;
#81 = ORIENTED_EDGE ( 'NONE', *, *, #32, .T. ) ;
#82 = CARTESIAN_POINT ( 'NONE',  ( -5.999999999999999112, 0.000000000000000000, 0.000000000000000000 ) ) ;
#83 = MANIFOLD_SOLID_BREP ( 'Boss-Extrude2', #275 ) ;
#84 = VERTEX_POINT ( 'NONE', #364 ) ;
#85 = VERTEX_POINT ( 'NONE', #126 ) ;
#86 = CARTESIAN_POINT ( 'NONE',  ( 8.000000000000000000, 0.000000000000000000, -1.500000000000000000 ) ) ;
#87 = CIRCLE ( 'NONE', #309, 8.000000000000000000 ) ;
#88 = FACE_OUTER_BOUND ( 'NONE', #55, .T. ) ;
#89 = AXIS2_PLACEMENT_3D ( 'NONE', #56, #80, #393 ) ;
#90 = ORIENTED_EDGE ( 'NONE', *, *, #180, .F. ) ;
#91 = PRODUCT_RELATED_PRODUCT_CATEGORY ( 'part', '', ( #33 ) ) ;
#92 = EDGE_CURVE ( 'NONE', #375, #85, #235, .T. ) ;
#93 = CYLINDRICAL_SURFACE ( 'NONE', #255, 6.000000000000000000 ) ;
#94 = SHAPE_DEFINITION_REPRESENTATION ( #121, #371 ) ;
#95 = DIRECTION ( 'NONE',  ( -0.000000000000000000, 0.000000000000000000, 1.000000000000000000 ) ) ;
#96 = DIRECTION ( 'NONE',  ( 1.000000000000000000, 0.000000000000000000, 0.000000000000000000 ) ) ;
#97 = AXIS2_PLACEMENT_3D ( 'NONE', #103, #278, #267 ) ;
#98 = EDGE_CURVE ( 'NONE', #254, #163, #120, .T. ) ;
#99 =( LENGTH_UNIT ( ) NAMED_UNIT ( * ) SI_UNIT ( .MILLI., .METRE. ) );
#100 = EDGE_LOOP ( 'NONE', ( #75, #63 ) ) ;
#101 = LINE ( 'NONE', #167, #30 ) ;
#102 = EDGE_LOOP ( 'NONE', ( #281, #359, #53, #110 ) ) ;
#103 = CARTESIAN_POINT ( 'NONE',  ( 0.000000000000000000, 0.000000000000000000, 0.000000000000000000 ) ) ;
#104 = DIRECTION ( 'NONE',  ( -0.000000000000000000, 0.000000000000000000, 1.000000000000000000 ) ) ;
#105 = DIRECTION ( 'NONE',  ( -0.000000000000000000, 0.000000000000000000, 1.000000000000000000 ) ) ;
#106 = DIRECTION ( 'NONE',  ( -0.000000000000000000, -0.000000000000000000, -1.000000000000000000 ) ) ;
#107 = EDGE_LOOP ( 'NONE', ( #301, #195, #51, #356 ) ) ;
#108 = CIRCLE ( 'NONE', #367, 34.00000000000000000 ) ;
#109 = LINE ( 'NONE', #143, #252 ) ;
#110 = ORIENTED_EDGE ( 'NONE', *, *, #197, .T. ) ;
#111 = AXIS2_PLACEMENT_3D ( 'NONE', #326, #392, #20 ) ;
#112 = ADVANCED_FACE ( 'NONE', ( #211 ), #93, .T. ) ;
#113 = CARTESIAN_POINT ( 'NONE',  ( 8.239936510889833698E-15, 30.10000000000000142, 5.500000000000000000 ) ) ;
#114 = CARTESIAN_POINT ( 'NONE',  ( 0.000000000000000000, 0.000000000000000000, -1.500000000000000000 ) ) ;
#115 = AXIS2_PLACEMENT_3D ( 'NONE', #71, #67, #204 ) ;
#116 = DIRECTION ( 'NONE',  ( -1.000000000000000000, 0.000000000000000000, 0.000000000000000000 ) ) ;
#117 = SURFACE_STYLE_USAGE ( .BOTH. , #387 ) ;
#118 = CARTESIAN_POINT ( 'NONE',  ( 0.000000000000000000, 0.000000000000000000, 5.500000000000000000 ) ) ;
#119 = CARTESIAN_POINT ( 'NONE',  ( -3.000000000000000444, 3.673940397442060361E-16, -1.500000000000000000 ) ) ;
#120 = CIRCLE ( 'NONE', #308, 6.000000000000000000 ) ;
#121 = PRODUCT_DEFINITION_SHAPE ( 'NONE', 'NONE',  #130 ) ;
#122 = EDGE_CURVE ( 'NONE', #391, #14, #292, .T. ) ;
#123 = DIRECTION ( 'NONE',  ( 1.000000000000000000, 0.000000000000000000, 0.000000000000000000 ) ) ;
#124 = CARTESIAN_POINT ( 'NONE',  ( -8.000000000000000000, 9.797174393178825657E-16, -1.500000000000000000 ) ) ;
#125 = DIRECTION ( 'NONE',  ( 0.000000000000000000, 0.000000000000000000, 1.000000000000000000 ) ) ;
#126 = CARTESIAN_POINT ( 'NONE',  ( -5.999999999999999112, 0.000000000000000000, 5.500000000000000000 ) ) ;
#127 = CIRCLE ( 'NONE', #70, 5.999999999999999112 ) ;
#128 = ADVANCED_FACE ( 'NONE', ( #305 ), #297, .T. ) ;
#129 = ADVANCED_FACE ( 'NONE', ( #209 ), #50, .T. ) ;
#130 = PRODUCT_DEFINITION ( 'UNKNOWN', '', #232, #194 ) ;
#131 = CARTESIAN_POINT ( 'NONE',  ( 0.000000000000000000, 0.000000000000000000, 0.000000000000000000 ) ) ;
#132 = MECHANICAL_DESIGN_GEOMETRIC_PRESENTATION_REPRESENTATION (  '', ( #339 ), #184 ) ;
#133 = DIRECTION ( 'NONE',  ( -0.000000000000000000, 0.000000000000000000, 1.000000000000000000 ) ) ;
#134 = DIRECTION ( 'NONE',  ( -1.000000000000000000, 0.000000000000000000, 0.000000000000000000 ) ) ;
#135 = ORIENTED_EDGE ( 'NONE', *, *, #212, .T. ) ;
#136 = VECTOR ( 'NONE', #219, 1000.000000000000000 ) ;
#137 = DIRECTION ( 'NONE',  ( -0.000000000000000000, 0.000000000000000000, 1.000000000000000000 ) ) ;
#138 = DIRECTION ( 'NONE',  ( 1.000000000000000000, 0.000000000000000000, 0.000000000000000000 ) ) ;
#139 = LINE ( 'NONE', #287, #158 ) ;
#140 = EDGE_LOOP ( 'NONE', ( #90, #69, #173, #45 ) ) ;
#141 = CIRCLE ( 'NONE', #177, 8.000000000000000000 ) ;
#142 = EDGE_CURVE ( 'NONE', #85, #389, #355, .T. ) ;
#143 = CARTESIAN_POINT ( 'NONE',  ( -3.000000000000000444, 3.673940397442060361E-16, -1.500000000000000000 ) ) ;
#144 = ORIENTED_EDGE ( 'NONE', *, *, #142, .F. ) ;
#145 = CARTESIAN_POINT ( 'NONE',  ( 3.000000000000000444, 0.000000000000000000, -1.500000000000000000 ) ) ;
#146 = ORIENTED_EDGE ( 'NONE', *, *, #340, .T. ) ;
#147 = ORIENTED_EDGE ( 'NONE', *, *, #92, .F. ) ;
#148 = DIRECTION ( 'NONE',  ( 0.000000000000000000, 0.000000000000000000, 1.000000000000000000 ) ) ;
#149 = AXIS2_PLACEMENT_3D ( 'NONE', #233, #218, #256 ) ;
#150 = DIRECTION ( 'NONE',  ( -0.000000000000000000, -0.000000000000000000, -1.000000000000000000 ) ) ;
#151 = VERTEX_POINT ( 'NONE', #390 ) ;
#152 = DIRECTION ( 'NONE',  ( -0.000000000000000000, 0.000000000000000000, 1.000000000000000000 ) ) ;
#153 = FACE_OUTER_BOUND ( 'NONE', #200, .T. ) ;
#154 = CARTESIAN_POINT ( 'NONE',  ( 0.000000000000000000, 0.000000000000000000, 5.500000000000000000 ) ) ;
#155 =( NAMED_UNIT ( * ) PLANE_ANGLE_UNIT ( ) SI_UNIT ( $, .RADIAN. ) );
#156 = PRESENTATION_LAYER_ASSIGNMENT (  '', '', ( #3 ) ) ;
#157 = EDGE_CURVE ( 'NONE', #161, #391, #31, .T. ) ;
#158 = VECTOR ( 'NONE', #13, 1000.000000000000000 ) ;
#159 = AXIS2_PLACEMENT_3D ( 'NONE', #343, #148, #123 ) ;
#160 = CIRCLE ( 'NONE', #149, 34.00000000000000000 ) ;
#161 = VERTEX_POINT ( 'NONE', #119 ) ;
#162 = CYLINDRICAL_SURFACE ( 'NONE', #210, 34.00000000000000000 ) ;
#163 = VERTEX_POINT ( 'NONE', #234 ) ;
#164 = ORIENTED_EDGE ( 'NONE', *, *, #253, .F. ) ;
#165 = CARTESIAN_POINT ( 'NONE',  ( 0.000000000000000000, 0.000000000000000000, 0.000000000000000000 ) ) ;
#166 = UNCERTAINTY_MEASURE_WITH_UNIT (LENGTH_MEASURE( 1.000000000000000082E-05 ), #357, 'distance_accuracy_value', 'NONE');
#167 = CARTESIAN_POINT ( 'NONE',  ( 4.833679251964357881, 3.554651162790703367, 5.500000000000000000 ) ) ;
#168 = DIRECTION ( 'NONE',  ( -0.000000000000000000, 0.000000000000000000, 1.000000000000000000 ) ) ;
#169 = CARTESIAN_POINT ( 'NONE',  ( 8.456776945386934585E-15, -30.10000000000000142, 5.500000000000000000 ) ) ;
#170 = DIRECTION ( 'NONE',  ( -1.000000000000000000, 0.000000000000000000, 0.000000000000000000 ) ) ;
#171 = LINE ( 'NONE', #60, #347 ) ;
#172 = DIRECTION ( 'NONE',  ( -0.000000000000000000, -0.000000000000000000, -1.000000000000000000 ) ) ;
#173 = ORIENTED_EDGE ( 'NONE', *, *, #253, .T. ) ;
#174 = VERTEX_POINT ( 'NONE', #86 ) ;
#175 = CARTESIAN_POINT ( 'NONE',  ( -4.833679251964359658, 3.554651162790696706, 5.500000000000000000 ) ) ;
#176 = EDGE_LOOP ( 'NONE', ( #380, #203, #12, #25 ) ) ;
#177 = AXIS2_PLACEMENT_3D ( 'NONE', #225, #353, #47 ) ;
#178 = DIRECTION ( 'NONE',  ( -1.000000000000000000, 0.000000000000000000, 0.000000000000000000 ) ) ;
#179 = CARTESIAN_POINT ( 'NONE',  ( 0.000000000000000000, 0.000000000000000000, 5.500000000000000000 ) ) ;
#180 = EDGE_CURVE ( 'NONE', #330, #151, #207, .T. ) ;
#181 = ADVANCED_FACE ( 'NONE', ( #335, #57 ), #374, .T. ) ;
#182 = APPLICATION_PROTOCOL_DEFINITION ( 'draft international standard', 'automotive_design', 1998, #327 ) ;
#183 = COLOUR_RGB ( '',0.7921568627450980005, 0.8196078431372548767, 0.9333333333333333481 ) ;
#184 =( GEOMETRIC_REPRESENTATION_CONTEXT ( 3 ) GLOBAL_UNCERTAINTY_ASSIGNED_CONTEXT ( ( #190 ) ) GLOBAL_UNIT_ASSIGNED_CONTEXT ( ( #99, #155, #395 ) ) REPRESENTATION_CONTEXT ( 'NONE', 'WORKASPACE' ) );
#185 = EDGE_CURVE ( 'NONE', #163, #227, #379, .T. ) ;
#186 = AXIS2_PLACEMENT_3D ( 'NONE', #65, #106, #72 ) ;
#187 = VECTOR ( 'NONE', #150, 1000.000000000000000 ) ;
#188 = FILL_AREA_STYLE ('',( #296 ) ) ;
#189 = CIRCLE ( 'NONE', #15, 5.999999999999999112 ) ;
#190 = UNCERTAINTY_MEASURE_WITH_UNIT (LENGTH_MEASURE( 1.000000000000000082E-05 ), #99, 'distance_accuracy_value', 'NONE');
#191 = ORIENTED_EDGE ( 'NONE', *, *, #340, .F. ) ;
#192 = CARTESIAN_POINT ( 'NONE',  ( 3.000000000000000444, 0.000000000000000000, 5.500000000000000000 ) ) ;
#193 = FACE_OUTER_BOUND ( 'NONE', #107, .T. ) ;
#194 = PRODUCT_DEFINITION_CONTEXT ( 'detailed design', #37, 'design' ) ;
#195 = ORIENTED_EDGE ( 'NONE', *, *, #242, .F. ) ;
#196 = DIRECTION ( 'NONE',  ( -0.000000000000000000, -0.000000000000000000, -1.000000000000000000 ) ) ;
#197 = EDGE_CURVE ( 'NONE', #254, #48, #101, .T. ) ;
#198 = CARTESIAN_POINT ( 'NONE',  ( 0.000000000000000000, 0.000000000000000000, 5.500000000000000000 ) ) ;
#199 = CARTESIAN_POINT ( 'NONE',  ( 4.833679251964358770, -3.554651162790700258, 5.500000000000000000 ) ) ;
#200 = EDGE_LOOP ( 'NONE', ( #331, #221 ) ) ;
#201 = FACE_OUTER_BOUND ( 'NONE', #38, .T. ) ;
#202 = DIRECTION ( 'NONE',  ( -0.000000000000000000, 0.000000000000000000, 1.000000000000000000 ) ) ;
#203 = ORIENTED_EDGE ( 'NONE', *, *, #185, .F. ) ;
#204 = DIRECTION ( 'NONE',  ( 1.000000000000000000, 0.000000000000000000, 0.000000000000000000 ) ) ;
#205 = CARTESIAN_POINT ( 'NONE',  ( 0.000000000000000000, 0.000000000000000000, 0.000000000000000000 ) ) ;
#206 = ORIENTED_EDGE ( 'NONE', *, *, #32, .F. ) ;
#207 = LINE ( 'NONE', #124, #310 ) ;
#208 = ORIENTED_EDGE ( 'NONE', *, *, #185, .T. ) ;
#209 = FACE_OUTER_BOUND ( 'NONE', #176, .T. ) ;
#210 = AXIS2_PLACEMENT_3D ( 'NONE', #251, #196, #134 ) ;
#211 = FACE_OUTER_BOUND ( 'NONE', #237, .T. ) ;
#212 = EDGE_CURVE ( 'NONE', #161, #277, #109, .T. ) ;
#213 = AXIS2_PLACEMENT_3D ( 'NONE', #317, #105, #49 ) ;
#214 = SURFACE_STYLE_FILL_AREA ( #188 ) ;
#215 = EDGE_CURVE ( 'NONE', #151, #22, #87, .T. ) ;
#216 = ORIENTED_EDGE ( 'NONE', *, *, #36, .F. ) ;
#217 = DIRECTION ( 'NONE',  ( 1.000000000000000000, 0.000000000000000000, 0.000000000000000000 ) ) ;
#218 = DIRECTION ( 'NONE',  ( 0.000000000000000000, -0.000000000000000000, -1.000000000000000000 ) ) ;
#219 = DIRECTION ( 'NONE',  ( 0.000000000000000000, 0.000000000000000000, 1.000000000000000000 ) ) ;
#220 = ORIENTED_EDGE ( 'NONE', *, *, #294, .F. ) ;
#221 = ORIENTED_EDGE ( 'NONE', *, *, #399, .F. ) ;
#222 = CARTESIAN_POINT ( 'NONE',  ( 4.833679251964358770, -3.554651162790700258, 0.000000000000000000 ) ) ;
#223 = AXIS2_PLACEMENT_3D ( 'NONE', #246, #68, #41 ) ;
#224 = CYLINDRICAL_SURFACE ( 'NONE', #186, 5.999999999999999112 ) ;
#225 = CARTESIAN_POINT ( 'NONE',  ( 0.000000000000000000, 0.000000000000000000, -1.500000000000000000 ) ) ;
#226 = CARTESIAN_POINT ( 'NONE',  ( 3.000000000000000444, 0.000000000000000000, -1.500000000000000000 ) ) ;
#227 = VERTEX_POINT ( 'NONE', #222 ) ;
#228 = CARTESIAN_POINT ( 'NONE',  ( 8.239936510889833698E-15, 30.10000000000000142, 5.500000000000000000 ) ) ;
#229 = VERTEX_POINT ( 'NONE', #43 ) ;
#230 = PRESENTATION_STYLE_ASSIGNMENT (( #117 ) ) ;
#231 = ORIENTED_EDGE ( 'NONE', *, *, #98, .F. ) ;
#232 = PRODUCT_DEFINITION_FORMATION_WITH_SPECIFIED_SOURCE ( 'ANY', '', #33, .NOT_KNOWN. ) ;
#233 = CARTESIAN_POINT ( 'NONE',  ( 8.456776945386934585E-15, -30.10000000000000142, 0.000000000000000000 ) ) ;
#234 = CARTESIAN_POINT ( 'NONE',  ( 4.833679251964358770, -3.554651162790700258, 5.500000000000000000 ) ) ;
#235 = CIRCLE ( 'NONE', #282, 5.999999999999999112 ) ;
#236 = ORIENTED_EDGE ( 'NONE', *, *, #98, .T. ) ;
#237 = EDGE_LOOP ( 'NONE', ( #206, #298, #236, #208 ) ) ;
#238 = AXIS2_PLACEMENT_3D ( 'NONE', #113, #168, #44 ) ;
#239 = AXIS2_PLACEMENT_3D ( 'NONE', #228, #172, #116 ) ;
#240 = DIRECTION ( 'NONE',  ( 0.000000000000000000, 0.000000000000000000, 1.000000000000000000 ) ) ;
#241 = DIRECTION ( 'NONE',  ( 1.000000000000000000, 0.000000000000000000, 0.000000000000000000 ) ) ;
#242 = EDGE_CURVE ( 'NONE', #391, #161, #7, .T. ) ;
#243 = DIRECTION ( 'NONE',  ( 0.000000000000000000, -0.000000000000000000, -1.000000000000000000 ) ) ;
#244 = CIRCLE ( 'NONE', #35, 8.000000000000000000 ) ;
#245 = ADVANCED_FACE ( 'NONE', ( #344 ), #224, .T. ) ;
#246 = CARTESIAN_POINT ( 'NONE',  ( 0.000000000000000000, 0.000000000000000000, -1.500000000000000000 ) ) ;
#247 =( GEOMETRIC_REPRESENTATION_CONTEXT ( 3 ) GLOBAL_UNCERTAINTY_ASSIGNED_CONTEXT ( ( #166 ) ) GLOBAL_UNIT_ASSIGNED_CONTEXT ( ( #357, #361, #394 ) ) REPRESENTATION_CONTEXT ( 'NONE', 'WORKASPACE' ) );
#248 = ORIENTED_EDGE ( 'NONE', *, *, #260, .T. ) ;
#249 = PRESENTATION_LAYER_ASSIGNMENT (  '', '', ( #339 ) ) ;
#250 = FACE_BOUND ( 'NONE', #100, .T. ) ;
#251 = CARTESIAN_POINT ( 'NONE',  ( 8.456776945386934585E-15, -30.10000000000000142, 5.500000000000000000 ) ) ;
#252 = VECTOR ( 'NONE', #261, 1000.000000000000000 ) ;
#253 = EDGE_CURVE ( 'NONE', #174, #22, #323, .T. ) ;
#254 = VERTEX_POINT ( 'NONE', #377 ) ;
#255 = AXIS2_PLACEMENT_3D ( 'NONE', #154, #360, #178 ) ;
#256 = DIRECTION ( 'NONE',  ( 1.000000000000000000, 0.000000000000000000, 0.000000000000000000 ) ) ;
#257 = CARTESIAN_POINT ( 'NONE',  ( 0.000000000000000000, 0.000000000000000000, -1.500000000000000000 ) ) ;
#258 = DIRECTION ( 'NONE',  ( 0.000000000000000000, -0.000000000000000000, -1.000000000000000000 ) ) ;
#259 = AXIS2_PLACEMENT_3D ( 'NONE', #349, #320, #217 ) ;
#260 = EDGE_CURVE ( 'NONE', #384, #163, #362, .T. ) ;
#261 = DIRECTION ( 'NONE',  ( 0.000000000000000000, 0.000000000000000000, 1.000000000000000000 ) ) ;
#262 =( NAMED_UNIT ( * ) SI_UNIT ( $, .STERADIAN. ) SOLID_ANGLE_UNIT ( ) );
#263 = ADVANCED_FACE ( 'NONE', ( #201 ), #288, .F. ) ;
#264 = DIRECTION ( 'NONE',  ( 0.000000000000000000, 0.000000000000000000, 1.000000000000000000 ) ) ;
#265 = EDGE_LOOP ( 'NONE', ( #316, #334, #248, #231, #220 ) ) ;
#266 = COLOUR_RGB ( '',0.7921568627450980005, 0.8196078431372548767, 0.9333333333333333481 ) ;
#267 = DIRECTION ( 'NONE',  ( 1.000000000000000000, 0.000000000000000000, 0.000000000000000000 ) ) ;
#268 = DIRECTION ( 'NONE',  ( 1.000000000000000000, 0.000000000000000000, 0.000000000000000000 ) ) ;
#269 = ORIENTED_EDGE ( 'NONE', *, *, #34, .F. ) ;
#270 = PLANE ( 'NONE',  #111 ) ;
#271 = CARTESIAN_POINT ( 'NONE',  ( -5.999999999999999112, 0.000000000000000000, 5.500000000000000000 ) ) ;
#272 = EDGE_CURVE ( 'NONE', #229, #389, #127, .T. ) ;
#273 = AXIS2_PLACEMENT_3D ( 'NONE', #205, #202, #18 ) ;
#274 = EDGE_CURVE ( 'NONE', #384, #84, #139, .T. ) ;
#275 = CLOSED_SHELL ( 'NONE', ( #370, #263, #128, #11, #303, #1, #381, #245, #129, #112, #311, #181 ) ) ;
#276 = AXIS2_PLACEMENT_3D ( 'NONE', #118, #137, #40 ) ;
#277 = VERTEX_POINT ( 'NONE', #5 ) ;
#278 = DIRECTION ( 'NONE',  ( 0.000000000000000000, -0.000000000000000000, -1.000000000000000000 ) ) ;
#279 = DIRECTION ( 'NONE',  ( -0.000000000000000000, -0.000000000000000000, -1.000000000000000000 ) ) ;
#280 = AXIS2_PLACEMENT_3D ( 'NONE', #397, #125, #96 ) ;
#281 = ORIENTED_EDGE ( 'NONE', *, *, #54, .F. ) ;
#282 = AXIS2_PLACEMENT_3D ( 'NONE', #332, #95, #26 ) ;
#283 = CARTESIAN_POINT ( 'NONE',  ( 8.000000000000000000, 0.000000000000000000, 0.000000000000000000 ) ) ;
#284 = DIRECTION ( 'NONE',  ( -0.000000000000000000, 0.000000000000000000, 1.000000000000000000 ) ) ;
#285 = AXIS2_PLACEMENT_3D ( 'NONE', #257, #104, #46 ) ;
#286 = VECTOR ( 'NONE', #279, 1000.000000000000000 ) ;
#287 = CARTESIAN_POINT ( 'NONE',  ( -4.833679251964356105, -3.554651162790701591, 5.500000000000000000 ) ) ;
#288 = CYLINDRICAL_SURFACE ( 'NONE', #259, 3.000000000000000444 ) ;
#289 = FILL_AREA_STYLE_COLOUR ( '', #183 ) ;
#290 = ORIENTED_EDGE ( 'NONE', *, *, #291, .T. ) ;
#291 = EDGE_CURVE ( 'NONE', #174, #330, #141, .T. ) ;
#292 = LINE ( 'NONE', #145, #363 ) ;
#293 = CARTESIAN_POINT ( 'NONE',  ( -4.833679251964356105, -3.554651162790701591, 5.500000000000000000 ) ) ;
#294 = EDGE_CURVE ( 'NONE', #375, #254, #378, .T. ) ;
#295 = ORIENTED_EDGE ( 'NONE', *, *, #59, .T. ) ;
#296 = FILL_AREA_STYLE_COLOUR ( '', #266 ) ;
#297 = CYLINDRICAL_SURFACE ( 'NONE', #61, 8.000000000000000000 ) ;
#298 = ORIENTED_EDGE ( 'NONE', *, *, #197, .F. ) ;
#299 = CARTESIAN_POINT ( 'NONE',  ( 8.239936510889833698E-15, 30.10000000000000142, 0.000000000000000000 ) ) ;
#300 = EDGE_LOOP ( 'NONE', ( #66, #350, #81, #376, #191 ) ) ;
#301 = ORIENTED_EDGE ( 'NONE', *, *, #212, .F. ) ;
#302 = DIRECTION ( 'NONE',  ( 1.000000000000000000, 0.000000000000000000, 0.000000000000000000 ) ) ;
#303 = ADVANCED_FACE ( 'NONE', ( #193 ), #2, .F. ) ;
#304 = AXIS2_PLACEMENT_3D ( 'NONE', #169, #258, #351 ) ;
#305 = FACE_OUTER_BOUND ( 'NONE', #24, .T. ) ;
#306 =( LENGTH_UNIT ( ) NAMED_UNIT ( * ) SI_UNIT ( .MILLI., .METRE. ) );
#307 = PRODUCT_CONTEXT ( 'NONE', #327, 'mechanical' ) ;
#308 = AXIS2_PLACEMENT_3D ( 'NONE', #366, #243, #302 ) ;
#309 = AXIS2_PLACEMENT_3D ( 'NONE', #131, #321, #9 ) ;
#310 = VECTOR ( 'NONE', #240, 1000.000000000000000 ) ;
#311 = ADVANCED_FACE ( 'NONE', ( #372 ), #162, .T. ) ;
#312 = ORIENTED_EDGE ( 'NONE', *, *, #59, .F. ) ;
#313 = DIRECTION ( 'NONE',  ( 1.000000000000000000, 0.000000000000000000, 0.000000000000000000 ) ) ;
#314 = CIRCLE ( 'NONE', #338, 3.000000000000000444 ) ;
#315 = DIRECTION ( 'NONE',  ( 1.000000000000000000, 0.000000000000000000, 0.000000000000000000 ) ) ;
#316 = ORIENTED_EDGE ( 'NONE', *, *, #92, .T. ) ;
#317 = CARTESIAN_POINT ( 'NONE',  ( 0.000000000000000000, 0.000000000000000000, 5.500000000000000000 ) ) ;
#318 = CARTESIAN_POINT ( 'NONE',  ( -8.000000000000000000, 9.797174393178825657E-16, -1.500000000000000000 ) ) ;
#319 = UNCERTAINTY_MEASURE_WITH_UNIT (LENGTH_MEASURE( 1.000000000000000082E-05 ), #306, 'distance_accuracy_value', 'NONE');
#320 = DIRECTION ( 'NONE',  ( 0.000000000000000000, 0.000000000000000000, 1.000000000000000000 ) ) ;
#321 = DIRECTION ( 'NONE',  ( -0.000000000000000000, 0.000000000000000000, 1.000000000000000000 ) ) ;
#322 = ORIENTED_EDGE ( 'NONE', *, *, #368, .T. ) ;
#323 = LINE ( 'NONE', #346, #136 ) ;
#324 = PLANE ( 'NONE',  #273 ) ;
#325 =( GEOMETRIC_REPRESENTATION_CONTEXT ( 3 ) GLOBAL_UNCERTAINTY_ASSIGNED_CONTEXT ( ( #319 ) ) GLOBAL_UNIT_ASSIGNED_CONTEXT ( ( #306, #29, #262 ) ) REPRESENTATION_CONTEXT ( 'NONE', 'WORKASPACE' ) );
#326 = CARTESIAN_POINT ( 'NONE',  ( 0.000000000000000000, 0.000000000000000000, -1.500000000000000000 ) ) ;
#327 = APPLICATION_CONTEXT ( 'automotive_design' ) ;
#328 = EDGE_LOOP ( 'NONE', ( #144, #147, #322, #79 ) ) ;
#329 = FACE_OUTER_BOUND ( 'NONE', #73, .T. ) ;
#330 = VERTEX_POINT ( 'NONE', #318 ) ;
#331 = ORIENTED_EDGE ( 'NONE', *, *, #291, .F. ) ;
#332 = CARTESIAN_POINT ( 'NONE',  ( 0.000000000000000000, 0.000000000000000000, 5.500000000000000000 ) ) ;
#333 = EDGE_LOOP ( 'NONE', ( #216, #269 ) ) ;
#334 = ORIENTED_EDGE ( 'NONE', *, *, #78, .T. ) ;
#335 = FACE_BOUND ( 'NONE', #333, .T. ) ;
#336 = DIRECTION ( 'NONE',  ( -0.000000000000000000, -0.000000000000000000, -1.000000000000000000 ) ) ;
#337 = CIRCLE ( 'NONE', #97, 6.000000000000000000 ) ;
#338 = AXIS2_PLACEMENT_3D ( 'NONE', #4, #133, #373 ) ;
#339 = STYLED_ITEM ( 'NONE', ( #62 ), #83 ) ;
#340 = EDGE_CURVE ( 'NONE', #389, #84, #189, .T. ) ;
#341 = SURFACE_STYLE_USAGE ( .BOTH. , #342 ) ;
#342 = SURFACE_SIDE_STYLE ('',( #214 ) ) ;
#343 = CARTESIAN_POINT ( 'NONE',  ( 0.000000000000000000, 0.000000000000000000, -1.500000000000000000 ) ) ;
#344 = FACE_OUTER_BOUND ( 'NONE', #328, .T. ) ;
#345 = ORIENTED_EDGE ( 'NONE', *, *, #122, .F. ) ;
#346 = CARTESIAN_POINT ( 'NONE',  ( 8.000000000000000000, 0.000000000000000000, -1.500000000000000000 ) ) ;
#347 = VECTOR ( 'NONE', #336, 1000.000000000000000 ) ;
#348 = CYLINDRICAL_SURFACE ( 'NONE', #159, 8.000000000000000000 ) ;
#349 = CARTESIAN_POINT ( 'NONE',  ( 0.000000000000000000, 0.000000000000000000, -1.500000000000000000 ) ) ;
#350 = ORIENTED_EDGE ( 'NONE', *, *, #54, .T. ) ;
#351 = DIRECTION ( 'NONE',  ( 1.000000000000000000, 0.000000000000000000, 0.000000000000000000 ) ) ;
#352 = ORIENTED_EDGE ( 'NONE', *, *, #142, .T. ) ;
#353 = DIRECTION ( 'NONE',  ( -0.000000000000000000, 0.000000000000000000, 1.000000000000000000 ) ) ;
#354 = ORIENTED_EDGE ( 'NONE', *, *, #78, .F. ) ;
#355 = LINE ( 'NONE', #271, #187 ) ;
#356 = ORIENTED_EDGE ( 'NONE', *, *, #36, .T. ) ;
#357 =( LENGTH_UNIT ( ) NAMED_UNIT ( * ) SI_UNIT ( .MILLI., .METRE. ) );
#358 = MECHANICAL_DESIGN_GEOMETRIC_PRESENTATION_REPRESENTATION (  '', ( #3 ), #247 ) ;
#359 = ORIENTED_EDGE ( 'NONE', *, *, #368, .F. ) ;
#360 = DIRECTION ( 'NONE',  ( -0.000000000000000000, -0.000000000000000000, -1.000000000000000000 ) ) ;
#361 =( NAMED_UNIT ( * ) PLANE_ANGLE_UNIT ( ) SI_UNIT ( $, .RADIAN. ) );
#362 = CIRCLE ( 'NONE', #238, 34.00000000000000000 ) ;
#363 = VECTOR ( 'NONE', #264, 1000.000000000000000 ) ;
#364 = CARTESIAN_POINT ( 'NONE',  ( -4.833679251964356105, -3.554651162790701591, 0.000000000000000000 ) ) ;
#365 = DIRECTION ( 'NONE',  ( 1.000000000000000000, 0.000000000000000000, 0.000000000000000000 ) ) ;
#366 = CARTESIAN_POINT ( 'NONE',  ( 0.000000000000000000, 0.000000000000000000, 5.500000000000000000 ) ) ;
#367 = AXIS2_PLACEMENT_3D ( 'NONE', #299, #152, #241 ) ;
#368 = EDGE_CURVE ( 'NONE', #375, #229, #171, .T. ) ;
#369 = CIRCLE ( 'NONE', #115, 8.000000000000000000 ) ;
#370 = ADVANCED_FACE ( 'NONE', ( #88 ), #23, .T. ) ;
#371 = ADVANCED_BREP_SHAPE_REPRESENTATION ( 'MS1021', ( #83, #280 ), #325 ) ;
#372 = FACE_OUTER_BOUND ( 'NONE', #102, .T. ) ;
#373 = DIRECTION ( 'NONE',  ( 1.000000000000000000, 0.000000000000000000, 0.000000000000000000 ) ) ;
#374 = PLANE ( 'NONE',  #10 ) ;
#375 = VERTEX_POINT ( 'NONE', #175 ) ;
#376 = ORIENTED_EDGE ( 'NONE', *, *, #398, .F. ) ;
#377 = CARTESIAN_POINT ( 'NONE',  ( 4.833679251964357881, 3.554651162790703367, 5.500000000000000000 ) ) ;
#378 = CIRCLE ( 'NONE', #304, 34.00000000000000000 ) ;
#379 = LINE ( 'NONE', #199, #286 ) ;
#380 = ORIENTED_EDGE ( 'NONE', *, *, #398, .T. ) ;
#381 = ADVANCED_FACE ( 'NONE', ( #17, #329 ), #324, .T. ) ;
#382 = DIRECTION ( 'NONE',  ( -0.000000000000000000, 0.000000000000000000, 1.000000000000000000 ) ) ;
#383 = FILL_AREA_STYLE ('',( #289 ) ) ;
#384 = VERTEX_POINT ( 'NONE', #293 ) ;
#385 = ORIENTED_EDGE ( 'NONE', *, *, #180, .T. ) ;
#386 = CIRCLE ( 'NONE', #213, 5.999999999999999112 ) ;
#387 = SURFACE_SIDE_STYLE ('',( #52 ) ) ;
#388 = ORIENTED_EDGE ( 'NONE', *, *, #215, .T. ) ;
#389 = VERTEX_POINT ( 'NONE', #82 ) ;
#390 = CARTESIAN_POINT ( 'NONE',  ( -8.000000000000000000, 9.797174393178825657E-16, 0.000000000000000000 ) ) ;
#391 = VERTEX_POINT ( 'NONE', #226 ) ;
#392 = DIRECTION ( 'NONE',  ( -0.000000000000000000, 0.000000000000000000, 1.000000000000000000 ) ) ;
#393 = DIRECTION ( 'NONE',  ( 1.000000000000000000, 0.000000000000000000, 0.000000000000000000 ) ) ;
#394 =( NAMED_UNIT ( * ) SI_UNIT ( $, .STERADIAN. ) SOLID_ANGLE_UNIT ( ) );
#395 =( NAMED_UNIT ( * ) SI_UNIT ( $, .STERADIAN. ) SOLID_ANGLE_UNIT ( ) );
#396 = APPLICATION_PROTOCOL_DEFINITION ( 'draft international standard', 'automotive_design', 1998, #37 ) ;
#397 = CARTESIAN_POINT ( 'NONE',  ( 0.000000000000000000, 0.000000000000000000, 0.000000000000000000 ) ) ;
#398 = EDGE_CURVE ( 'NONE', #84, #227, #108, .T. ) ;
#399 = EDGE_CURVE ( 'NONE', #330, #174, #244, .T. ) ;
ENDSEC;
END-ISO-10303-21;
