ISO-10303-21;
HEADER;
FILE_DESCRIPTION (( 'STEP AP214' ),
    '1' );
FILE_NAME ('MS0044.STEP',
    '2025-05-08T16:25:57',
    ( '' ),
    ( '' ),
    'SwSTEP 2.0',
    'SolidWorks 2023',
    '' );
FILE_SCHEMA (( 'AUTOMOTIVE_DESIGN' ));
ENDSEC;

DATA;
#1 = VECTOR ( 'NONE', #173, 39.37007874015748143 ) ;
#2 = DIRECTION ( 'NONE',  ( -1.000000000000000000, 0.000000000000000000, 0.000000000000000000 ) ) ;
#3 =( NAMED_UNIT ( * ) PLANE_ANGLE_UNIT ( ) SI_UNIT ( $, .RADIAN. ) );
#4 = AXIS2_PLACEMENT_3D ( 'NONE', #16, #91, #248 ) ;
#5 = ORIENTED_EDGE ( 'NONE', *, *, #77, .F. ) ;
#6 = EDGE_CURVE ( 'NONE', #157, #189, #159, .T. ) ;
#7 = CARTESIAN_POINT ( 'NONE',  ( 0.000000000000000000, 0.000000000000000000, 3.500000000000000000 ) ) ;
#8 = CARTESIAN_POINT ( 'NONE',  ( 0.000000000000000000, 0.000000000000000000, 4.000000000000000000 ) ) ;
#9 = EDGE_CURVE ( 'NONE', #183, #251, #126, .T. ) ;
#10 = DIRECTION ( 'NONE',  ( -0.000000000000000000, -0.000000000000000000, -1.000000000000000000 ) ) ;
#11 = EDGE_LOOP ( 'NONE', ( #23, #87, #213, #5 ) ) ;
#12 = DIRECTION ( 'NONE',  ( -1.000000000000000000, 0.000000000000000000, 0.000000000000000000 ) ) ;
#13 = CIRCLE ( 'NONE', #94, 0.6875000000000000000 ) ;
#14 = DIRECTION ( 'NONE',  ( 1.000000000000000000, 0.000000000000000000, 0.000000000000000000 ) ) ;
#15 = DIRECTION ( 'NONE',  ( -0.000000000000000000, -0.000000000000000000, -1.000000000000000000 ) ) ;
#16 = CARTESIAN_POINT ( 'NONE',  ( 0.000000000000000000, 0.000000000000000000, 3.500000000000000000 ) ) ;
#17 = ADVANCED_FACE ( 'NONE', ( #166, #52 ), #233, .T. ) ;
#18 = DIRECTION ( 'NONE',  ( -0.000000000000000000, 0.000000000000000000, 1.000000000000000000 ) ) ;
#19 = VERTEX_POINT ( 'NONE', #74 ) ;
#20 = CARTESIAN_POINT ( 'NONE',  ( 0.000000000000000000, 0.000000000000000000, 0.000000000000000000 ) ) ;
#21 = ORIENTED_EDGE ( 'NONE', *, *, #204, .T. ) ;
#22 = DIRECTION ( 'NONE',  ( 1.000000000000000000, 0.000000000000000000, 0.000000000000000000 ) ) ;
#23 = ORIENTED_EDGE ( 'NONE', *, *, #96, .F. ) ;
#24 = PRODUCT ( 'MS0044', 'MS0044', '', ( #155 ) ) ;
#25 = APPLICATION_CONTEXT ( 'automotive_design' ) ;
#26 = ORIENTED_EDGE ( 'NONE', *, *, #9, .F. ) ;
#27 = CARTESIAN_POINT ( 'NONE',  ( 0.6520000000000000240, 7.984697130440742487E-17, 3.500000000000000000 ) ) ;
#28 = VECTOR ( 'NONE', #256, 39.37007874015748143 ) ;
#29 =( GEOMETRIC_REPRESENTATION_CONTEXT ( 3 ) GLOBAL_UNCERTAINTY_ASSIGNED_CONTEXT ( ( #165 ) ) GLOBAL_UNIT_ASSIGNED_CONTEXT ( ( #177, #3, #138 ) ) REPRESENTATION_CONTEXT ( 'NONE', 'WORKASPACE' ) );
#30 = ORIENTED_EDGE ( 'NONE', *, *, #109, .F. ) ;
#31 = VERTEX_POINT ( 'NONE', #191 ) ;
#32 = UNCERTAINTY_MEASURE_WITH_UNIT (LENGTH_MEASURE( 1.000000000000000082E-05 ), #148, 'distance_accuracy_value', 'NONE');
#33 = DIRECTION ( 'NONE',  ( -0.000000000000000000, -0.000000000000000000, -1.000000000000000000 ) ) ;
#34 =( GEOMETRIC_REPRESENTATION_CONTEXT ( 3 ) GLOBAL_UNCERTAINTY_ASSIGNED_CONTEXT ( ( #32 ) ) GLOBAL_UNIT_ASSIGNED_CONTEXT ( ( #148, #278, #129 ) ) REPRESENTATION_CONTEXT ( 'NONE', 'WORKASPACE' ) );
#35 = ORIENTED_EDGE ( 'NONE', *, *, #228, .T. ) ;
#36 = LENGTH_MEASURE_WITH_UNIT ( LENGTH_MEASURE( 0.02539999999999999897 ), #240 );
#37 = LINE ( 'NONE', #105, #142 ) ;
#38 = EDGE_CURVE ( 'NONE', #137, #19, #47, .T. ) ;
#39 = DIRECTION ( 'NONE',  ( 1.000000000000000000, 0.000000000000000000, 0.000000000000000000 ) ) ;
#40 = DIRECTION ( 'NONE',  ( -0.000000000000000000, -0.000000000000000000, -1.000000000000000000 ) ) ;
#41 = ORIENTED_EDGE ( 'NONE', *, *, #208, .T. ) ;
#42 = FACE_OUTER_BOUND ( 'NONE', #11, .T. ) ;
#43 = APPLICATION_CONTEXT ( 'automotive_design' ) ;
#44 = CARTESIAN_POINT ( 'NONE',  ( -0.6875000000000000000, 0.000000000000000000, 0.000000000000000000 ) ) ;
#45 = EDGE_LOOP ( 'NONE', ( #35, #95 ) ) ;
#46 = CARTESIAN_POINT ( 'NONE',  ( 0.6080000000000000959, 7.445852538815908269E-17, 0.000000000000000000 ) ) ;
#47 = LINE ( 'NONE', #168, #252 ) ;
#48 = ORIENTED_EDGE ( 'NONE', *, *, #250, .F. ) ;
#49 = AXIS2_PLACEMENT_3D ( 'NONE', #259, #79, #14 ) ;
#50 = ORIENTED_EDGE ( 'NONE', *, *, #246, .F. ) ;
#51 = VERTEX_POINT ( 'NONE', #27 ) ;
#52 = FACE_OUTER_BOUND ( 'NONE', #203, .T. ) ;
#53 = FACE_OUTER_BOUND ( 'NONE', #201, .T. ) ;
#54 = PRESENTATION_STYLE_ASSIGNMENT (( #193 ) ) ;
#55 = FILL_AREA_STYLE ('',( #282 ) ) ;
#56 = VECTOR ( 'NONE', #175, 39.37007874015748143 ) ;
#57 = AXIS2_PLACEMENT_3D ( 'NONE', #172, #101, #39 ) ;
#58 = ADVANCED_FACE ( 'NONE', ( #187, #117 ), #274, .F. ) ;
#59 = CARTESIAN_POINT ( 'NONE',  ( -0.6080000000000000959, 0.000000000000000000, 3.500000000000000000 ) ) ;
#60 = DIRECTION ( 'NONE',  ( -0.000000000000000000, -0.000000000000000000, -1.000000000000000000 ) ) ;
#61 = DIRECTION ( 'NONE',  ( 1.000000000000000000, 0.000000000000000000, 0.000000000000000000 ) ) ;
#62 = ORIENTED_EDGE ( 'NONE', *, *, #131, .F. ) ;
#63 = DIRECTION ( 'NONE',  ( 1.000000000000000000, 0.000000000000000000, 0.000000000000000000 ) ) ;
#64 = EDGE_LOOP ( 'NONE', ( #180, #154, #277, #41 ) ) ;
#65 = CARTESIAN_POINT ( 'NONE',  ( 0.000000000000000000, 0.000000000000000000, 0.000000000000000000 ) ) ;
#66 = ORIENTED_EDGE ( 'NONE', *, *, #96, .T. ) ;
#67 = CARTESIAN_POINT ( 'NONE',  ( 0.6080000000000000959, 7.445852538815908269E-17, 3.500000000000000000 ) ) ;
#68 = AXIS2_PLACEMENT_3D ( 'NONE', #112, #133, #2 ) ;
#69 = EDGE_CURVE ( 'NONE', #137, #135, #88, .T. ) ;
#70 = ORIENTED_EDGE ( 'NONE', *, *, #280, .F. ) ;
#71 = DIRECTION ( 'NONE',  ( 1.000000000000000000, 0.000000000000000000, 0.000000000000000000 ) ) ;
#72 = ADVANCED_FACE ( 'NONE', ( #97 ), #188, .F. ) ;
#73 = DIRECTION ( 'NONE',  ( 1.000000000000000000, 0.000000000000000000, 0.000000000000000000 ) ) ;
#74 = CARTESIAN_POINT ( 'NONE',  ( 0.6875000000000000000, 8.419446744138052529E-17, 0.000000000000000000 ) ) ;
#75 = LINE ( 'NONE', #127, #1 ) ;
#76 = DIRECTION ( 'NONE',  ( 1.000000000000000000, 0.000000000000000000, 0.000000000000000000 ) ) ;
#77 = EDGE_CURVE ( 'NONE', #31, #123, #75, .T. ) ;
#78 = AXIS2_PLACEMENT_3D ( 'NONE', #272, #276, #249 ) ;
#79 = DIRECTION ( 'NONE',  ( -0.000000000000000000, 0.000000000000000000, 1.000000000000000000 ) ) ;
#80 = LINE ( 'NONE', #283, #28 ) ;
#81 = ADVANCED_BREP_SHAPE_REPRESENTATION ( 'MS0044', ( #134, #237 ), #29 ) ;
#82 = SURFACE_STYLE_FILL_AREA ( #55 ) ;
#83 = EDGE_CURVE ( 'NONE', #123, #51, #265, .T. ) ;
#84 = AXIS2_PLACEMENT_3D ( 'NONE', #146, #214, #12 ) ;
#85 = CARTESIAN_POINT ( 'NONE',  ( -0.6520000000000000240, 0.000000000000000000, 3.500000000000000000 ) ) ;
#86 =( LENGTH_UNIT ( ) NAMED_UNIT ( * ) SI_UNIT ( $, .METRE. ) );
#87 = ORIENTED_EDGE ( 'NONE', *, *, #116, .T. ) ;
#88 = CIRCLE ( 'NONE', #190, 0.6875000000000000000 ) ;
#89 = ORIENTED_EDGE ( 'NONE', *, *, #116, .F. ) ;
#90 = DIRECTION ( 'NONE',  ( -0.000000000000000000, 0.000000000000000000, 1.000000000000000000 ) ) ;
#91 = DIRECTION ( 'NONE',  ( -0.000000000000000000, -0.000000000000000000, -1.000000000000000000 ) ) ;
#92 = EDGE_LOOP ( 'NONE', ( #121, #285 ) ) ;
#93 = PRODUCT_DEFINITION ( 'UNKNOWN', '', #221, #239 ) ;
#94 = AXIS2_PLACEMENT_3D ( 'NONE', #224, #18, #22 ) ;
#95 = ORIENTED_EDGE ( 'NONE', *, *, #69, .T. ) ;
#96 = EDGE_CURVE ( 'NONE', #229, #31, #167, .T. ) ;
#97 = FACE_OUTER_BOUND ( 'NONE', #145, .T. ) ;
#98 = DIRECTION ( 'NONE',  ( 1.000000000000000000, 0.000000000000000000, 0.000000000000000000 ) ) ;
#99 = COLOUR_RGB ( '',0.7921568627450980005, 0.8196078431372548767, 0.9333333333333333481 ) ;
#100 = DIRECTION ( 'NONE',  ( -0.000000000000000000, 0.000000000000000000, 1.000000000000000000 ) ) ;
#101 = DIRECTION ( 'NONE',  ( 0.000000000000000000, -0.000000000000000000, -1.000000000000000000 ) ) ;
#102 = CARTESIAN_POINT ( 'NONE',  ( -0.6080000000000000959, 0.000000000000000000, 0.000000000000000000 ) ) ;
#103 = AXIS2_PLACEMENT_3D ( 'NONE', #65, #199, #263 ) ;
#104 = PRESENTATION_LAYER_ASSIGNMENT (  '', '', ( #232 ) ) ;
#105 = CARTESIAN_POINT ( 'NONE',  ( 0.6520000000000000240, 7.984697130440742487E-17, 4.000000000000000000 ) ) ;
#106 = FACE_BOUND ( 'NONE', #92, .T. ) ;
#107 = DIRECTION ( 'NONE',  ( -0.000000000000000000, 0.000000000000000000, 1.000000000000000000 ) ) ;
#108 = CYLINDRICAL_SURFACE ( 'NONE', #68, 0.6520000000000000240 ) ;
#109 = EDGE_CURVE ( 'NONE', #51, #123, #225, .T. ) ;
#110 = DIRECTION ( 'NONE',  ( -1.000000000000000000, 0.000000000000000000, 0.000000000000000000 ) ) ;
#111 = ORIENTED_EDGE ( 'NONE', *, *, #38, .T. ) ;
#112 = CARTESIAN_POINT ( 'NONE',  ( 0.000000000000000000, 0.000000000000000000, 4.000000000000000000 ) ) ;
#113 = AXIS2_PLACEMENT_3D ( 'NONE', #267, #60, #110 ) ;
#114 = ORIENTED_EDGE ( 'NONE', *, *, #260, .T. ) ;
#115 = LENGTH_MEASURE_WITH_UNIT ( LENGTH_MEASURE( 0.02539999999999999897 ), #86 );
#116 = EDGE_CURVE ( 'NONE', #229, #51, #37, .T. ) ;
#117 = FACE_BOUND ( 'NONE', #236, .T. ) ;
#118 = CLOSED_SHELL ( 'NONE', ( #194, #186, #179, #215, #72, #136, #58, #149, #17 ) ) ;
#119 = ORIENTED_EDGE ( 'NONE', *, *, #6, .T. ) ;
#120 = ORIENTED_EDGE ( 'NONE', *, *, #163, .F. ) ;
#121 = ORIENTED_EDGE ( 'NONE', *, *, #83, .T. ) ;
#122 = AXIS2_PLACEMENT_3D ( 'NONE', #192, #195, #76 ) ;
#123 = VERTEX_POINT ( 'NONE', #85 ) ;
#124 = CYLINDRICAL_SURFACE ( 'NONE', #84, 0.6875000000000000000 ) ;
#125 = CARTESIAN_POINT ( 'NONE',  ( 0.6875000000000000000, 8.419446744138052529E-17, 3.500000000000000000 ) ) ;
#126 = CIRCLE ( 'NONE', #152, 0.6080000000000000959 ) ;
#127 = CARTESIAN_POINT ( 'NONE',  ( -0.6520000000000000240, 0.000000000000000000, 4.000000000000000000 ) ) ;
#128 = CARTESIAN_POINT ( 'NONE',  ( -0.6875000000000000000, 0.000000000000000000, 3.500000000000000000 ) ) ;
#129 =( NAMED_UNIT ( * ) SI_UNIT ( $, .STERADIAN. ) SOLID_ANGLE_UNIT ( ) );
#130 = DIRECTION ( 'NONE',  ( -0.000000000000000000, 0.000000000000000000, 1.000000000000000000 ) ) ;
#131 = EDGE_CURVE ( 'NONE', #157, #183, #196, .T. ) ;
#132 = DIMENSIONAL_EXPONENTS ( 1.000000000000000000, 0.000000000000000000, 0.000000000000000000, 0.000000000000000000, 0.000000000000000000, 0.000000000000000000, 0.000000000000000000 ) ;
#133 = DIRECTION ( 'NONE',  ( -0.000000000000000000, -0.000000000000000000, -1.000000000000000000 ) ) ;
#134 = MANIFOLD_SOLID_BREP ( 'Boss-Extrude2', #118 ) ;
#135 = VERTEX_POINT ( 'NONE', #128 ) ;
#136 = ADVANCED_FACE ( 'NONE', ( #106, #219 ), #262, .T. ) ;
#137 = VERTEX_POINT ( 'NONE', #125 ) ;
#138 =( NAMED_UNIT ( * ) SI_UNIT ( $, .STERADIAN. ) SOLID_ANGLE_UNIT ( ) );
#139 = APPLICATION_PROTOCOL_DEFINITION ( 'draft international standard', 'automotive_design', 1998, #25 ) ;
#140 = DIRECTION ( 'NONE',  ( -0.000000000000000000, 0.000000000000000000, 1.000000000000000000 ) ) ;
#141 = ORIENTED_EDGE ( 'NONE', *, *, #204, .F. ) ;
#142 = VECTOR ( 'NONE', #258, 39.37007874015748143 ) ;
#143 = ORIENTED_EDGE ( 'NONE', *, *, #280, .T. ) ;
#144 = DIRECTION ( 'NONE',  ( -0.000000000000000000, 0.000000000000000000, 1.000000000000000000 ) ) ;
#145 = EDGE_LOOP ( 'NONE', ( #268, #255, #164, #50 ) ) ;
#146 = CARTESIAN_POINT ( 'NONE',  ( 0.000000000000000000, 0.000000000000000000, 3.500000000000000000 ) ) ;
#147 = SURFACE_SIDE_STYLE ('',( #82 ) ) ;
#148 =( CONVERSION_BASED_UNIT ( 'INCH', #36 ) LENGTH_UNIT ( ) NAMED_UNIT ( #132 ) );
#149 = ADVANCED_FACE ( 'NONE', ( #218 ), #170, .T. ) ;
#150 = CARTESIAN_POINT ( 'NONE',  ( 0.000000000000000000, 0.000000000000000000, 4.000000000000000000 ) ) ;
#151 = CIRCLE ( 'NONE', #212, 0.6875000000000000000 ) ;
#152 = AXIS2_PLACEMENT_3D ( 'NONE', #169, #185, #73 ) ;
#153 = AXIS2_PLACEMENT_3D ( 'NONE', #200, #107, #61 ) ;
#154 = ORIENTED_EDGE ( 'NONE', *, *, #228, .F. ) ;
#155 = PRODUCT_CONTEXT ( 'NONE', #43, 'mechanical' ) ;
#156 = CARTESIAN_POINT ( 'NONE',  ( 0.000000000000000000, 0.000000000000000000, 0.000000000000000000 ) ) ;
#157 = VERTEX_POINT ( 'NONE', #197 ) ;
#158 = FACE_OUTER_BOUND ( 'NONE', #64, .T. ) ;
#159 = CIRCLE ( 'NONE', #211, 0.6080000000000000959 ) ;
#160 = CIRCLE ( 'NONE', #103, 0.6080000000000000959 ) ;
#161 = ORIENTED_EDGE ( 'NONE', *, *, #6, .F. ) ;
#162 = SHAPE_DEFINITION_REPRESENTATION ( #184, #81 ) ;
#163 = EDGE_CURVE ( 'NONE', #135, #207, #80, .T. ) ;
#164 = ORIENTED_EDGE ( 'NONE', *, *, #131, .T. ) ;
#165 = UNCERTAINTY_MEASURE_WITH_UNIT (LENGTH_MEASURE( 1.000000000000000082E-05 ), #177, 'distance_accuracy_value', 'NONE');
#166 = FACE_BOUND ( 'NONE', #230, .T. ) ;
#167 = CIRCLE ( 'NONE', #49, 0.6520000000000000240 ) ;
#168 = CARTESIAN_POINT ( 'NONE',  ( 0.6875000000000000000, 8.419446744138052529E-17, 3.500000000000000000 ) ) ;
#169 = CARTESIAN_POINT ( 'NONE',  ( 0.000000000000000000, 0.000000000000000000, 0.000000000000000000 ) ) ;
#170 = CYLINDRICAL_SURFACE ( 'NONE', #174, 0.6520000000000000240 ) ;
#171 = AXIS2_PLACEMENT_3D ( 'NONE', #222, #227, #202 ) ;
#172 = CARTESIAN_POINT ( 'NONE',  ( 0.000000000000000000, 0.000000000000000000, 3.500000000000000000 ) ) ;
#173 = DIRECTION ( 'NONE',  ( -0.000000000000000000, -0.000000000000000000, -1.000000000000000000 ) ) ;
#174 = AXIS2_PLACEMENT_3D ( 'NONE', #216, #15, #281 ) ;
#175 = DIRECTION ( 'NONE',  ( -0.000000000000000000, -0.000000000000000000, -1.000000000000000000 ) ) ;
#176 = PRODUCT_RELATED_PRODUCT_CATEGORY ( 'part', '', ( #24 ) ) ;
#177 =( CONVERSION_BASED_UNIT ( 'INCH', #115 ) LENGTH_UNIT ( ) NAMED_UNIT ( #273 ) );
#178 = DIRECTION ( 'NONE',  ( 0.000000000000000000, 0.000000000000000000, 1.000000000000000000 ) ) ;
#179 = ADVANCED_FACE ( 'NONE', ( #53 ), #124, .T. ) ;
#180 = ORIENTED_EDGE ( 'NONE', *, *, #38, .F. ) ;
#181 = CARTESIAN_POINT ( 'NONE',  ( 0.6520000000000000240, 7.984697130440742487E-17, 4.000000000000000000 ) ) ;
#182 = ORIENTED_EDGE ( 'NONE', *, *, #246, .T. ) ;
#183 = VERTEX_POINT ( 'NONE', #102 ) ;
#184 = PRODUCT_DEFINITION_SHAPE ( 'NONE', 'NONE',  #93 ) ;
#185 = DIRECTION ( 'NONE',  ( -0.000000000000000000, 0.000000000000000000, 1.000000000000000000 ) ) ;
#186 = ADVANCED_FACE ( 'NONE', ( #279 ), #244, .F. ) ;
#187 = FACE_OUTER_BOUND ( 'NONE', #234, .T. ) ;
#188 = CYLINDRICAL_SURFACE ( 'NONE', #198, 0.6080000000000000959 ) ;
#189 = VERTEX_POINT ( 'NONE', #284 ) ;
#190 = AXIS2_PLACEMENT_3D ( 'NONE', #7, #100, #235 ) ;
#191 = CARTESIAN_POINT ( 'NONE',  ( -0.6520000000000000240, 0.000000000000000000, 4.000000000000000000 ) ) ;
#192 = CARTESIAN_POINT ( 'NONE',  ( 0.000000000000000000, 0.000000000000000000, 3.500000000000000000 ) ) ;
#193 = SURFACE_STYLE_USAGE ( .BOTH. , #147 ) ;
#194 = ADVANCED_FACE ( 'NONE', ( #42 ), #108, .T. ) ;
#195 = DIRECTION ( 'NONE',  ( -0.000000000000000000, 0.000000000000000000, 1.000000000000000000 ) ) ;
#196 = LINE ( 'NONE', #59, #56 ) ;
#197 = CARTESIAN_POINT ( 'NONE',  ( -0.6080000000000000959, 0.000000000000000000, 4.000000000000000000 ) ) ;
#198 = AXIS2_PLACEMENT_3D ( 'NONE', #275, #33, #210 ) ;
#199 = DIRECTION ( 'NONE',  ( -0.000000000000000000, 0.000000000000000000, 1.000000000000000000 ) ) ;
#200 = CARTESIAN_POINT ( 'NONE',  ( 0.000000000000000000, 0.000000000000000000, 4.000000000000000000 ) ) ;
#201 = EDGE_LOOP ( 'NONE', ( #206, #111, #143, #120 ) ) ;
#202 = DIRECTION ( 'NONE',  ( 1.000000000000000000, 0.000000000000000000, 0.000000000000000000 ) ) ;
#203 = EDGE_LOOP ( 'NONE', ( #21, #66 ) ) ;
#204 = EDGE_CURVE ( 'NONE', #31, #229, #247, .T. ) ;
#205 = MECHANICAL_DESIGN_GEOMETRIC_PRESENTATION_REPRESENTATION (  '', ( #232 ), #34 ) ;
#206 = ORIENTED_EDGE ( 'NONE', *, *, #69, .F. ) ;
#207 = VERTEX_POINT ( 'NONE', #44 ) ;
#208 = EDGE_CURVE ( 'NONE', #207, #19, #13, .T. ) ;
#209 = EDGE_LOOP ( 'NONE', ( #119, #114, #26, #62 ) ) ;
#210 = DIRECTION ( 'NONE',  ( -1.000000000000000000, 0.000000000000000000, 0.000000000000000000 ) ) ;
#211 = AXIS2_PLACEMENT_3D ( 'NONE', #8, #140, #98 ) ;
#212 = AXIS2_PLACEMENT_3D ( 'NONE', #156, #130, #245 ) ;
#213 = ORIENTED_EDGE ( 'NONE', *, *, #83, .F. ) ;
#214 = DIRECTION ( 'NONE',  ( -0.000000000000000000, -0.000000000000000000, -1.000000000000000000 ) ) ;
#215 = ADVANCED_FACE ( 'NONE', ( #158 ), #269, .T. ) ;
#216 = CARTESIAN_POINT ( 'NONE',  ( 0.000000000000000000, 0.000000000000000000, 4.000000000000000000 ) ) ;
#217 = DIRECTION ( 'NONE',  ( 0.000000000000000000, -0.000000000000000000, -1.000000000000000000 ) ) ;
#218 = FACE_OUTER_BOUND ( 'NONE', #270, .T. ) ;
#219 = FACE_OUTER_BOUND ( 'NONE', #45, .T. ) ;
#220 = AXIS2_PLACEMENT_3D ( 'NONE', #150, #90, #243 ) ;
#221 = PRODUCT_DEFINITION_FORMATION_WITH_SPECIFIED_SOURCE ( 'ANY', '', #24, .NOT_KNOWN. ) ;
#222 = CARTESIAN_POINT ( 'NONE',  ( 0.000000000000000000, 0.000000000000000000, 3.500000000000000000 ) ) ;
#223 = ORIENTED_EDGE ( 'NONE', *, *, #208, .F. ) ;
#224 = CARTESIAN_POINT ( 'NONE',  ( 0.000000000000000000, 0.000000000000000000, 0.000000000000000000 ) ) ;
#225 = CIRCLE ( 'NONE', #57, 0.6520000000000000240 ) ;
#226 = CIRCLE ( 'NONE', #153, 0.6080000000000000959 ) ;
#227 = DIRECTION ( 'NONE',  ( -0.000000000000000000, 0.000000000000000000, 1.000000000000000000 ) ) ;
#228 = EDGE_CURVE ( 'NONE', #135, #137, #257, .T. ) ;
#229 = VERTEX_POINT ( 'NONE', #181 ) ;
#230 = EDGE_LOOP ( 'NONE', ( #161, #48 ) ) ;
#231 = VECTOR ( 'NONE', #40, 39.37007874015748143 ) ;
#232 = STYLED_ITEM ( 'NONE', ( #54 ), #134 ) ;
#233 = PLANE ( 'NONE',  #78 ) ;
#234 = EDGE_LOOP ( 'NONE', ( #223, #70 ) ) ;
#235 = DIRECTION ( 'NONE',  ( 1.000000000000000000, 0.000000000000000000, 0.000000000000000000 ) ) ;
#236 = EDGE_LOOP ( 'NONE', ( #253, #182 ) ) ;
#237 = AXIS2_PLACEMENT_3D ( 'NONE', #20, #178, #63 ) ;
#238 = CARTESIAN_POINT ( 'NONE',  ( 0.000000000000000000, 0.000000000000000000, 3.500000000000000000 ) ) ;
#239 = PRODUCT_DEFINITION_CONTEXT ( 'detailed design', #25, 'design' ) ;
#240 =( LENGTH_UNIT ( ) NAMED_UNIT ( * ) SI_UNIT ( $, .METRE. ) );
#241 = LINE ( 'NONE', #67, #231 ) ;
#242 = AXIS2_PLACEMENT_3D ( 'NONE', #254, #144, #71 ) ;
#243 = DIRECTION ( 'NONE',  ( 1.000000000000000000, 0.000000000000000000, 0.000000000000000000 ) ) ;
#244 = CYLINDRICAL_SURFACE ( 'NONE', #113, 0.6080000000000000959 ) ;
#245 = DIRECTION ( 'NONE',  ( 1.000000000000000000, 0.000000000000000000, 0.000000000000000000 ) ) ;
#246 = EDGE_CURVE ( 'NONE', #251, #183, #160, .T. ) ;
#247 = CIRCLE ( 'NONE', #220, 0.6520000000000000240 ) ;
#248 = DIRECTION ( 'NONE',  ( -1.000000000000000000, 0.000000000000000000, 0.000000000000000000 ) ) ;
#249 = DIRECTION ( 'NONE',  ( 1.000000000000000000, 0.000000000000000000, 0.000000000000000000 ) ) ;
#250 = EDGE_CURVE ( 'NONE', #189, #157, #226, .T. ) ;
#251 = VERTEX_POINT ( 'NONE', #46 ) ;
#252 = VECTOR ( 'NONE', #10, 39.37007874015748143 ) ;
#253 = ORIENTED_EDGE ( 'NONE', *, *, #9, .T. ) ;
#254 = CARTESIAN_POINT ( 'NONE',  ( 0.000000000000000000, 0.000000000000000000, 0.000000000000000000 ) ) ;
#255 = ORIENTED_EDGE ( 'NONE', *, *, #250, .T. ) ;
#256 = DIRECTION ( 'NONE',  ( -0.000000000000000000, -0.000000000000000000, -1.000000000000000000 ) ) ;
#257 = CIRCLE ( 'NONE', #171, 0.6875000000000000000 ) ;
#258 = DIRECTION ( 'NONE',  ( -0.000000000000000000, -0.000000000000000000, -1.000000000000000000 ) ) ;
#259 = CARTESIAN_POINT ( 'NONE',  ( 0.000000000000000000, 0.000000000000000000, 4.000000000000000000 ) ) ;
#260 = EDGE_CURVE ( 'NONE', #189, #251, #241, .T. ) ;
#261 = DIRECTION ( 'NONE',  ( 1.000000000000000000, 0.000000000000000000, 0.000000000000000000 ) ) ;
#262 = PLANE ( 'NONE',  #122 ) ;
#263 = DIRECTION ( 'NONE',  ( 1.000000000000000000, 0.000000000000000000, 0.000000000000000000 ) ) ;
#264 = ORIENTED_EDGE ( 'NONE', *, *, #77, .T. ) ;
#265 = CIRCLE ( 'NONE', #271, 0.6520000000000000240 ) ;
#266 = APPLICATION_PROTOCOL_DEFINITION ( 'draft international standard', 'automotive_design', 1998, #43 ) ;
#267 = CARTESIAN_POINT ( 'NONE',  ( 0.000000000000000000, 0.000000000000000000, 3.500000000000000000 ) ) ;
#268 = ORIENTED_EDGE ( 'NONE', *, *, #260, .F. ) ;
#269 = CYLINDRICAL_SURFACE ( 'NONE', #4, 0.6875000000000000000 ) ;
#270 = EDGE_LOOP ( 'NONE', ( #89, #141, #264, #30 ) ) ;
#271 = AXIS2_PLACEMENT_3D ( 'NONE', #238, #217, #261 ) ;
#272 = CARTESIAN_POINT ( 'NONE',  ( 0.000000000000000000, 0.000000000000000000, 4.000000000000000000 ) ) ;
#273 = DIMENSIONAL_EXPONENTS ( 1.000000000000000000, 0.000000000000000000, 0.000000000000000000, 0.000000000000000000, 0.000000000000000000, 0.000000000000000000, 0.000000000000000000 ) ;
#274 = PLANE ( 'NONE',  #242 ) ;
#275 = CARTESIAN_POINT ( 'NONE',  ( 0.000000000000000000, 0.000000000000000000, 3.500000000000000000 ) ) ;
#276 = DIRECTION ( 'NONE',  ( -0.000000000000000000, 0.000000000000000000, 1.000000000000000000 ) ) ;
#277 = ORIENTED_EDGE ( 'NONE', *, *, #163, .T. ) ;
#278 =( NAMED_UNIT ( * ) PLANE_ANGLE_UNIT ( ) SI_UNIT ( $, .RADIAN. ) );
#279 = FACE_OUTER_BOUND ( 'NONE', #209, .T. ) ;
#280 = EDGE_CURVE ( 'NONE', #19, #207, #151, .T. ) ;
#281 = DIRECTION ( 'NONE',  ( -1.000000000000000000, 0.000000000000000000, 0.000000000000000000 ) ) ;
#282 = FILL_AREA_STYLE_COLOUR ( '', #99 ) ;
#283 = CARTESIAN_POINT ( 'NONE',  ( -0.6875000000000000000, 0.000000000000000000, 3.500000000000000000 ) ) ;
#284 = CARTESIAN_POINT ( 'NONE',  ( 0.6080000000000000959, 7.445852538815908269E-17, 4.000000000000000000 ) ) ;
#285 = ORIENTED_EDGE ( 'NONE', *, *, #109, .T. ) ;
ENDSEC;
END-ISO-10303-21;
