ISO-10303-21;
HEADER;
FILE_DESCRIPTION (( 'STEP AP214' ),
    '1' );
FILE_NAME ('MS0043.STEP',
    '2025-05-08T17:02:13',
    ( '' ),
    ( '' ),
    'SwSTEP 2.0',
    'SolidWorks 2023',
    '' );
FILE_SCHEMA (( 'AUTOMOTIVE_DESIGN' ));
ENDSEC;

DATA;
#1 = VECTOR ( 'NONE', #103, 39.37007874015748143 ) ;
#2 = EDGE_LOOP ( 'NONE', ( #87, #8 ) ) ;
#3 = ORIENTED_EDGE ( 'NONE', *, *, #102, .F. ) ;
#4 = ORIENTED_EDGE ( 'NONE', *, *, #53, .F. ) ;
#5 = MECHANICAL_DESIGN_GEOMETRIC_PRESENTATION_REPRESENTATION (  '', ( #15 ), #125 ) ;
#6 = EDGE_CURVE ( 'NONE', #133, #159, #55, .T. ) ;
#7 = ORIENTED_EDGE ( 'NONE', *, *, #102, .T. ) ;
#8 = ORIENTED_EDGE ( 'NONE', *, *, #6, .F. ) ;
#9 = DIRECTION ( 'NONE',  ( -0.000000000000000000, -0.000000000000000000, -1.000000000000000000 ) ) ;
#10 = DIRECTION ( 'NONE',  ( -0.000000000000000000, 0.000000000000000000, 1.000000000000000000 ) ) ;
#11 = CARTESIAN_POINT ( 'NONE',  ( 0.000000000000000000, 0.000000000000000000, 0.000000000000000000 ) ) ;
#12 = PRODUCT ( 'MS0043', 'MS0043', '', ( #204 ) ) ;
#13 = PRODUCT_RELATED_PRODUCT_CATEGORY ( 'part', '', ( #12 ) ) ;
#14 = DIRECTION ( 'NONE',  ( -0.000000000000000000, -0.000000000000000000, -1.000000000000000000 ) ) ;
#15 = STYLED_ITEM ( 'NONE', ( #27 ), #82 ) ;
#16 = CYLINDRICAL_SURFACE ( 'NONE', #179, 0.6875000000000000000 ) ;
#17 =( NAMED_UNIT ( * ) PLANE_ANGLE_UNIT ( ) SI_UNIT ( $, .RADIAN. ) );
#18 = ORIENTED_EDGE ( 'NONE', *, *, #196, .F. ) ;
#19 = AXIS2_PLACEMENT_3D ( 'NONE', #168, #33, #95 ) ;
#20 = EDGE_LOOP ( 'NONE', ( #4, #129, #117, #70 ) ) ;
#21 = ORIENTED_EDGE ( 'NONE', *, *, #62, .T. ) ;
#22 = EDGE_CURVE ( 'NONE', #174, #159, #41, .T. ) ;
#23 = LINE ( 'NONE', #72, #190 ) ;
#24 = AXIS2_PLACEMENT_3D ( 'NONE', #205, #189, #65 ) ;
#25 = ORIENTED_EDGE ( 'NONE', *, *, #127, .F. ) ;
#26 = PLANE ( 'NONE',  #30 ) ;
#27 = PRESENTATION_STYLE_ASSIGNMENT (( #93 ) ) ;
#28 = CIRCLE ( 'NONE', #153, 0.6082677165354329896 ) ;
#29 = FACE_OUTER_BOUND ( 'NONE', #20, .T. ) ;
#30 = AXIS2_PLACEMENT_3D ( 'NONE', #11, #10, #79 ) ;
#31 = DIRECTION ( 'NONE',  ( -0.000000000000000000, 0.000000000000000000, 1.000000000000000000 ) ) ;
#32 = ADVANCED_BREP_SHAPE_REPRESENTATION ( 'MS0043', ( #82, #24 ), #118 ) ;
#33 = DIRECTION ( 'NONE',  ( -0.000000000000000000, 0.000000000000000000, 1.000000000000000000 ) ) ;
#34 = SHAPE_DEFINITION_REPRESENTATION ( #183, #32 ) ;
#35 = AXIS2_PLACEMENT_3D ( 'NONE', #203, #36, #97 ) ;
#36 = DIRECTION ( 'NONE',  ( -0.000000000000000000, 0.000000000000000000, 1.000000000000000000 ) ) ;
#37 = FACE_OUTER_BOUND ( 'NONE', #39, .T. ) ;
#38 = CARTESIAN_POINT ( 'NONE',  ( -0.6875000000000000000, 0.000000000000000000, 3.000000000000000444 ) ) ;
#39 = EDGE_LOOP ( 'NONE', ( #40, #42, #130, #193 ) ) ;
#40 = ORIENTED_EDGE ( 'NONE', *, *, #155, .F. ) ;
#41 = LINE ( 'NONE', #148, #1 ) ;
#42 = ORIENTED_EDGE ( 'NONE', *, *, #62, .F. ) ;
#43 = FILL_AREA_STYLE ('',( #178 ) ) ;
#44 = PRODUCT_DEFINITION ( 'UNKNOWN', '', #84, #128 ) ;
#45 =( NAMED_UNIT ( * ) SI_UNIT ( $, .STERADIAN. ) SOLID_ANGLE_UNIT ( ) );
#46 = CARTESIAN_POINT ( 'NONE',  ( 0.000000000000000000, 0.000000000000000000, 3.000000000000000444 ) ) ;
#47 = AXIS2_PLACEMENT_3D ( 'NONE', #46, #123, #180 ) ;
#48 = SURFACE_SIDE_STYLE ('',( #60 ) ) ;
#49 = DIRECTION ( 'NONE',  ( -0.000000000000000000, 0.000000000000000000, 1.000000000000000000 ) ) ;
#50 = CARTESIAN_POINT ( 'NONE',  ( 0.6082677165354329896, 7.449131120797874933E-17, 3.000000000000000444 ) ) ;
#51 = CARTESIAN_POINT ( 'NONE',  ( -0.6082677165354329896, 0.000000000000000000, 3.000000000000000444 ) ) ;
#52 = CIRCLE ( 'NONE', #132, 0.6082677165354329896 ) ;
#53 = EDGE_CURVE ( 'NONE', #195, #99, #23, .T. ) ;
#54 = ORIENTED_EDGE ( 'NONE', *, *, #22, .F. ) ;
#55 = CIRCLE ( 'NONE', #146, 0.6875000000000000000 ) ;
#56 = ORIENTED_EDGE ( 'NONE', *, *, #167, .F. ) ;
#57 = DIRECTION ( 'NONE',  ( -0.000000000000000000, 0.000000000000000000, 1.000000000000000000 ) ) ;
#58 = ADVANCED_FACE ( 'NONE', ( #75 ), #89, .F. ) ;
#59 = AXIS2_PLACEMENT_3D ( 'NONE', #131, #149, #122 ) ;
#60 = SURFACE_STYLE_FILL_AREA ( #43 ) ;
#61 = FACE_BOUND ( 'NONE', #175, .T. ) ;
#62 = EDGE_CURVE ( 'NONE', #174, #161, #192, .T. ) ;
#63 = DIRECTION ( 'NONE',  ( 1.000000000000000000, 0.000000000000000000, 0.000000000000000000 ) ) ;
#64 = DIRECTION ( 'NONE',  ( -0.000000000000000000, -0.000000000000000000, -1.000000000000000000 ) ) ;
#65 = DIRECTION ( 'NONE',  ( 1.000000000000000000, 0.000000000000000000, 0.000000000000000000 ) ) ;
#66 = DIRECTION ( 'NONE',  ( -1.000000000000000000, 0.000000000000000000, 0.000000000000000000 ) ) ;
#67 = VECTOR ( 'NONE', #144, 39.37007874015748143 ) ;
#68 = APPLICATION_PROTOCOL_DEFINITION ( 'draft international standard', 'automotive_design', 1998, #137 ) ;
#69 = APPLICATION_CONTEXT ( 'automotive_design' ) ;
#70 = ORIENTED_EDGE ( 'NONE', *, *, #152, .F. ) ;
#71 = EDGE_LOOP ( 'NONE', ( #91, #150, #88, #54 ) ) ;
#72 = CARTESIAN_POINT ( 'NONE',  ( 0.6082677165354329896, 7.449131120797874933E-17, 3.000000000000000444 ) ) ;
#73 = COLOUR_RGB ( '',0.7921568627450980005, 0.8196078431372548767, 0.9333333333333333481 ) ;
#74 = VERTEX_POINT ( 'NONE', #126 ) ;
#75 = FACE_OUTER_BOUND ( 'NONE', #134, .T. ) ;
#76 = CARTESIAN_POINT ( 'NONE',  ( -0.6082677165354329896, 0.000000000000000000, 3.000000000000000444 ) ) ;
#77 = AXIS2_PLACEMENT_3D ( 'NONE', #105, #31, #63 ) ;
#78 = CARTESIAN_POINT ( 'NONE',  ( 0.000000000000000000, 0.000000000000000000, 0.000000000000000000 ) ) ;
#79 = DIRECTION ( 'NONE',  ( 1.000000000000000000, 0.000000000000000000, 0.000000000000000000 ) ) ;
#80 = FACE_OUTER_BOUND ( 'NONE', #116, .T. ) ;
#81 = FACE_OUTER_BOUND ( 'NONE', #71, .T. ) ;
#82 = MANIFOLD_SOLID_BREP ( 'Boss-Extrude1', #111 ) ;
#83 = DIRECTION ( 'NONE',  ( 1.000000000000000000, 0.000000000000000000, 0.000000000000000000 ) ) ;
#84 = PRODUCT_DEFINITION_FORMATION_WITH_SPECIFIED_SOURCE ( 'ANY', '', #12, .NOT_KNOWN. ) ;
#85 = ADVANCED_FACE ( 'NONE', ( #165, #156 ), #26, .F. ) ;
#86 = ORIENTED_EDGE ( 'NONE', *, *, #185, .T. ) ;
#87 = ORIENTED_EDGE ( 'NONE', *, *, #145, .F. ) ;
#88 = ORIENTED_EDGE ( 'NONE', *, *, #6, .T. ) ;
#89 = CYLINDRICAL_SURFACE ( 'NONE', #59, 0.6082677165354329896 ) ;
#90 = ADVANCED_FACE ( 'NONE', ( #29 ), #104, .F. ) ;
#91 = ORIENTED_EDGE ( 'NONE', *, *, #185, .F. ) ;
#92 = DIRECTION ( 'NONE',  ( 1.000000000000000000, 0.000000000000000000, 0.000000000000000000 ) ) ;
#93 = SURFACE_STYLE_USAGE ( .BOTH. , #48 ) ;
#94 = DIRECTION ( 'NONE',  ( 1.000000000000000000, 0.000000000000000000, 0.000000000000000000 ) ) ;
#95 = DIRECTION ( 'NONE',  ( 1.000000000000000000, 0.000000000000000000, 0.000000000000000000 ) ) ;
#96 = CIRCLE ( 'NONE', #35, 0.6875000000000000000 ) ;
#97 = DIRECTION ( 'NONE',  ( 1.000000000000000000, 0.000000000000000000, 0.000000000000000000 ) ) ;
#98 =( NAMED_UNIT ( * ) SI_UNIT ( $, .STERADIAN. ) SOLID_ANGLE_UNIT ( ) );
#99 = VERTEX_POINT ( 'NONE', #200 ) ;
#100 = ORIENTED_EDGE ( 'NONE', *, *, #152, .T. ) ;
#101 = CARTESIAN_POINT ( 'NONE',  ( 0.000000000000000000, 0.000000000000000000, 0.000000000000000000 ) ) ;
#102 = EDGE_CURVE ( 'NONE', #74, #99, #28, .T. ) ;
#103 = DIRECTION ( 'NONE',  ( -0.000000000000000000, -0.000000000000000000, -1.000000000000000000 ) ) ;
#104 = CYLINDRICAL_SURFACE ( 'NONE', #166, 0.6082677165354329896 ) ;
#105 = CARTESIAN_POINT ( 'NONE',  ( 0.000000000000000000, 0.000000000000000000, 3.000000000000000444 ) ) ;
#106 = UNCERTAINTY_MEASURE_WITH_UNIT (LENGTH_MEASURE( 1.000000000000000082E-05 ), #187, 'distance_accuracy_value', 'NONE');
#107 = AXIS2_PLACEMENT_3D ( 'NONE', #139, #124, #201 ) ;
#108 =( NAMED_UNIT ( * ) PLANE_ANGLE_UNIT ( ) SI_UNIT ( $, .RADIAN. ) );
#109 = ADVANCED_FACE ( 'NONE', ( #61, #80 ), #140, .T. ) ;
#110 = CARTESIAN_POINT ( 'NONE',  ( 0.000000000000000000, 0.000000000000000000, 3.000000000000000444 ) ) ;
#111 = CLOSED_SHELL ( 'NONE', ( #115, #58, #90, #172, #109, #85 ) ) ;
#112 = LENGTH_MEASURE_WITH_UNIT ( LENGTH_MEASURE( 0.02539999999999999897 ), #184 );
#113 = CARTESIAN_POINT ( 'NONE',  ( 0.000000000000000000, 0.000000000000000000, 3.000000000000000444 ) ) ;
#114 = CARTESIAN_POINT ( 'NONE',  ( 0.6875000000000000000, 8.419446744138051296E-17, 3.000000000000000444 ) ) ;
#115 = ADVANCED_FACE ( 'NONE', ( #81 ), #154, .T. ) ;
#116 = EDGE_LOOP ( 'NONE', ( #21, #86 ) ) ;
#117 = ORIENTED_EDGE ( 'NONE', *, *, #196, .T. ) ;
#118 =( GEOMETRIC_REPRESENTATION_CONTEXT ( 3 ) GLOBAL_UNCERTAINTY_ASSIGNED_CONTEXT ( ( #106 ) ) GLOBAL_UNIT_ASSIGNED_CONTEXT ( ( #187, #17, #98 ) ) REPRESENTATION_CONTEXT ( 'NONE', 'WORKASPACE' ) );
#119 = DIMENSIONAL_EXPONENTS ( 1.000000000000000000, 0.000000000000000000, 0.000000000000000000, 0.000000000000000000, 0.000000000000000000, 0.000000000000000000, 0.000000000000000000 ) ;
#120 = DIRECTION ( 'NONE',  ( -0.000000000000000000, 0.000000000000000000, 1.000000000000000000 ) ) ;
#121 = DIRECTION ( 'NONE',  ( 1.000000000000000000, 0.000000000000000000, 0.000000000000000000 ) ) ;
#122 = DIRECTION ( 'NONE',  ( -1.000000000000000000, 0.000000000000000000, 0.000000000000000000 ) ) ;
#123 = DIRECTION ( 'NONE',  ( -0.000000000000000000, 0.000000000000000000, 1.000000000000000000 ) ) ;
#124 = DIRECTION ( 'NONE',  ( -0.000000000000000000, -0.000000000000000000, -1.000000000000000000 ) ) ;
#125 =( GEOMETRIC_REPRESENTATION_CONTEXT ( 3 ) GLOBAL_UNCERTAINTY_ASSIGNED_CONTEXT ( ( #177 ) ) GLOBAL_UNIT_ASSIGNED_CONTEXT ( ( #199, #108, #45 ) ) REPRESENTATION_CONTEXT ( 'NONE', 'WORKASPACE' ) );
#126 = CARTESIAN_POINT ( 'NONE',  ( -0.6082677165354329896, 0.000000000000000000, 0.000000000000000000 ) ) ;
#127 = EDGE_CURVE ( 'NONE', #195, #147, #186, .T. ) ;
#128 = PRODUCT_DEFINITION_CONTEXT ( 'detailed design', #137, 'design' ) ;
#129 = ORIENTED_EDGE ( 'NONE', *, *, #127, .T. ) ;
#130 = ORIENTED_EDGE ( 'NONE', *, *, #22, .T. ) ;
#131 = CARTESIAN_POINT ( 'NONE',  ( 0.000000000000000000, 0.000000000000000000, 3.000000000000000444 ) ) ;
#132 = AXIS2_PLACEMENT_3D ( 'NONE', #113, #49, #83 ) ;
#133 = VERTEX_POINT ( 'NONE', #157 ) ;
#134 = EDGE_LOOP ( 'NONE', ( #197, #191, #3, #18 ) ) ;
#135 = LENGTH_MEASURE_WITH_UNIT ( LENGTH_MEASURE( 0.02539999999999999897 ), #181 );
#136 = AXIS2_PLACEMENT_3D ( 'NONE', #141, #57, #121 ) ;
#137 = APPLICATION_CONTEXT ( 'automotive_design' ) ;
#138 = DIRECTION ( 'NONE',  ( -0.000000000000000000, 0.000000000000000000, 1.000000000000000000 ) ) ;
#139 = CARTESIAN_POINT ( 'NONE',  ( 0.000000000000000000, 0.000000000000000000, 3.000000000000000444 ) ) ;
#140 = PLANE ( 'NONE',  #47 ) ;
#141 = CARTESIAN_POINT ( 'NONE',  ( 0.000000000000000000, 0.000000000000000000, 0.000000000000000000 ) ) ;
#142 = PRESENTATION_LAYER_ASSIGNMENT (  '', '', ( #15 ) ) ;
#143 = APPLICATION_PROTOCOL_DEFINITION ( 'draft international standard', 'automotive_design', 1998, #69 ) ;
#144 = DIRECTION ( 'NONE',  ( -0.000000000000000000, -0.000000000000000000, -1.000000000000000000 ) ) ;
#145 = EDGE_CURVE ( 'NONE', #159, #133, #182, .T. ) ;
#146 = AXIS2_PLACEMENT_3D ( 'NONE', #101, #120, #160 ) ;
#147 = VERTEX_POINT ( 'NONE', #76 ) ;
#148 = CARTESIAN_POINT ( 'NONE',  ( -0.6875000000000000000, 0.000000000000000000, 3.000000000000000444 ) ) ;
#149 = DIRECTION ( 'NONE',  ( -0.000000000000000000, -0.000000000000000000, -1.000000000000000000 ) ) ;
#150 = ORIENTED_EDGE ( 'NONE', *, *, #155, .T. ) ;
#151 = DIRECTION ( 'NONE',  ( -1.000000000000000000, 0.000000000000000000, 0.000000000000000000 ) ) ;
#152 = EDGE_CURVE ( 'NONE', #99, #74, #158, .T. ) ;
#153 = AXIS2_PLACEMENT_3D ( 'NONE', #78, #138, #94 ) ;
#154 = CYLINDRICAL_SURFACE ( 'NONE', #107, 0.6875000000000000000 ) ;
#155 = EDGE_CURVE ( 'NONE', #161, #133, #188, .T. ) ;
#156 = FACE_OUTER_BOUND ( 'NONE', #2, .T. ) ;
#157 = CARTESIAN_POINT ( 'NONE',  ( 0.6875000000000000000, 8.419446744138051296E-17, 0.000000000000000000 ) ) ;
#158 = CIRCLE ( 'NONE', #173, 0.6082677165354329896 ) ;
#159 = VERTEX_POINT ( 'NONE', #171 ) ;
#160 = DIRECTION ( 'NONE',  ( 1.000000000000000000, 0.000000000000000000, 0.000000000000000000 ) ) ;
#161 = VERTEX_POINT ( 'NONE', #169 ) ;
#162 = DIRECTION ( 'NONE',  ( -0.000000000000000000, -0.000000000000000000, -1.000000000000000000 ) ) ;
#163 = CARTESIAN_POINT ( 'NONE',  ( 0.000000000000000000, 0.000000000000000000, 0.000000000000000000 ) ) ;
#164 = CARTESIAN_POINT ( 'NONE',  ( 0.000000000000000000, 0.000000000000000000, 3.000000000000000444 ) ) ;
#165 = FACE_BOUND ( 'NONE', #176, .T. ) ;
#166 = AXIS2_PLACEMENT_3D ( 'NONE', #164, #9, #151 ) ;
#167 = EDGE_CURVE ( 'NONE', #147, #195, #52, .T. ) ;
#168 = CARTESIAN_POINT ( 'NONE',  ( 0.000000000000000000, 0.000000000000000000, 3.000000000000000444 ) ) ;
#169 = CARTESIAN_POINT ( 'NONE',  ( 0.6875000000000000000, 8.419446744138051296E-17, 3.000000000000000444 ) ) ;
#170 = LINE ( 'NONE', #51, #67 ) ;
#171 = CARTESIAN_POINT ( 'NONE',  ( -0.6875000000000000000, 0.000000000000000000, 0.000000000000000000 ) ) ;
#172 = ADVANCED_FACE ( 'NONE', ( #37 ), #16, .T. ) ;
#173 = AXIS2_PLACEMENT_3D ( 'NONE', #163, #198, #92 ) ;
#174 = VERTEX_POINT ( 'NONE', #38 ) ;
#175 = EDGE_LOOP ( 'NONE', ( #56, #25 ) ) ;
#176 = EDGE_LOOP ( 'NONE', ( #7, #100 ) ) ;
#177 = UNCERTAINTY_MEASURE_WITH_UNIT (LENGTH_MEASURE( 1.000000000000000082E-05 ), #199, 'distance_accuracy_value', 'NONE');
#178 = FILL_AREA_STYLE_COLOUR ( '', #73 ) ;
#179 = AXIS2_PLACEMENT_3D ( 'NONE', #110, #14, #66 ) ;
#180 = DIRECTION ( 'NONE',  ( 1.000000000000000000, 0.000000000000000000, 0.000000000000000000 ) ) ;
#181 =( LENGTH_UNIT ( ) NAMED_UNIT ( * ) SI_UNIT ( $, .METRE. ) );
#182 = CIRCLE ( 'NONE', #136, 0.6875000000000000000 ) ;
#183 = PRODUCT_DEFINITION_SHAPE ( 'NONE', 'NONE',  #44 ) ;
#184 =( LENGTH_UNIT ( ) NAMED_UNIT ( * ) SI_UNIT ( $, .METRE. ) );
#185 = EDGE_CURVE ( 'NONE', #161, #174, #96, .T. ) ;
#186 = CIRCLE ( 'NONE', #19, 0.6082677165354329896 ) ;
#187 =( CONVERSION_BASED_UNIT ( 'INCH', #112 ) LENGTH_UNIT ( ) NAMED_UNIT ( #119 ) );
#188 = LINE ( 'NONE', #114, #202 ) ;
#189 = DIRECTION ( 'NONE',  ( 0.000000000000000000, 0.000000000000000000, 1.000000000000000000 ) ) ;
#190 = VECTOR ( 'NONE', #162, 39.37007874015748143 ) ;
#191 = ORIENTED_EDGE ( 'NONE', *, *, #53, .T. ) ;
#192 = CIRCLE ( 'NONE', #77, 0.6875000000000000000 ) ;
#193 = ORIENTED_EDGE ( 'NONE', *, *, #145, .T. ) ;
#194 = DIMENSIONAL_EXPONENTS ( 1.000000000000000000, 0.000000000000000000, 0.000000000000000000, 0.000000000000000000, 0.000000000000000000, 0.000000000000000000, 0.000000000000000000 ) ;
#195 = VERTEX_POINT ( 'NONE', #50 ) ;
#196 = EDGE_CURVE ( 'NONE', #147, #74, #170, .T. ) ;
#197 = ORIENTED_EDGE ( 'NONE', *, *, #167, .T. ) ;
#198 = DIRECTION ( 'NONE',  ( -0.000000000000000000, 0.000000000000000000, 1.000000000000000000 ) ) ;
#199 =( CONVERSION_BASED_UNIT ( 'INCH', #135 ) LENGTH_UNIT ( ) NAMED_UNIT ( #194 ) );
#200 = CARTESIAN_POINT ( 'NONE',  ( 0.6082677165354329896, 7.449131120797874933E-17, 0.000000000000000000 ) ) ;
#201 = DIRECTION ( 'NONE',  ( -1.000000000000000000, 0.000000000000000000, 0.000000000000000000 ) ) ;
#202 = VECTOR ( 'NONE', #64, 39.37007874015748143 ) ;
#203 = CARTESIAN_POINT ( 'NONE',  ( 0.000000000000000000, 0.000000000000000000, 3.000000000000000444 ) ) ;
#204 = PRODUCT_CONTEXT ( 'NONE', #69, 'mechanical' ) ;
#205 = CARTESIAN_POINT ( 'NONE',  ( 0.000000000000000000, 0.000000000000000000, 0.000000000000000000 ) ) ;
ENDSEC;
END-ISO-10303-21;
