ISO-10303-21;
HEADER;
FILE_DESCRIPTION (( 'STEP AP214' ),
    '1' );
FILE_NAME ('MS0041.STEP',
    '2025-05-08T16:50:21',
    ( '' ),
    ( '' ),
    'SwSTEP 2.0',
    'SolidWorks 2023',
    '' );
FILE_SCHEMA (( 'AUTOMOTIVE_DESIGN' ));
ENDSEC;

DATA;
#1 = VECTOR ( 'NONE', #128, 39.37007874015748143 ) ;
#2 = FACE_OUTER_BOUND ( 'NONE', #39, .T. ) ;
#3 = ORIENTED_EDGE ( 'NONE', *, *, #216, .T. ) ;
#4 = CARTESIAN_POINT ( 'NONE',  ( 0.5354330708661416693, 6.557163963938584412E-17, 2.839999999999990532 ) ) ;
#5 = ORIENTED_EDGE ( 'NONE', *, *, #159, .T. ) ;
#6 = AXIS2_PLACEMENT_3D ( 'NONE', #40, #156, #182 ) ;
#7 = DIRECTION ( 'NONE',  ( -1.000000000000000000, 0.000000000000000000, 0.000000000000000000 ) ) ;
#8 = FACE_BOUND ( 'NONE', #200, .T. ) ;
#9 = VERTEX_POINT ( 'NONE', #35 ) ;
#10 = EDGE_CURVE ( 'NONE', #12, #61, #83, .T. ) ;
#11 = CARTESIAN_POINT ( 'NONE',  ( 0.000000000000000000, 0.000000000000000000, 2.839999999999990532 ) ) ;
#12 = VERTEX_POINT ( 'NONE', #265 ) ;
#13 = DIRECTION ( 'NONE',  ( 1.000000000000000000, 0.000000000000000000, 0.000000000000000000 ) ) ;
#14 = ORIENTED_EDGE ( 'NONE', *, *, #244, .F. ) ;
#15 = CARTESIAN_POINT ( 'NONE',  ( 0.5904999999999999138, 7.231539348965117618E-17, 3.000000000000000444 ) ) ;
#16 = ORIENTED_EDGE ( 'NONE', *, *, #127, .F. ) ;
#17 = CARTESIAN_POINT ( 'NONE',  ( -0.5354330708661416693, 0.000000000000000000, 2.839999999999990532 ) ) ;
#18 = AXIS2_PLACEMENT_3D ( 'NONE', #93, #201, #62 ) ;
#19 = DIRECTION ( 'NONE',  ( 0.000000000000000000, -0.000000000000000000, -1.000000000000000000 ) ) ;
#20 = CIRCLE ( 'NONE', #183, 0.5904999999999999138 ) ;
#21 =( GEOMETRIC_REPRESENTATION_CONTEXT ( 3 ) GLOBAL_UNCERTAINTY_ASSIGNED_CONTEXT ( ( #34 ) ) GLOBAL_UNIT_ASSIGNED_CONTEXT ( ( #24, #99, #247 ) ) REPRESENTATION_CONTEXT ( 'NONE', 'WORKASPACE' ) );
#22 = ADVANCED_FACE ( 'NONE', ( #267 ), #213, .T. ) ;
#23 = EDGE_CURVE ( 'NONE', #218, #78, #257, .T. ) ;
#24 =( CONVERSION_BASED_UNIT ( 'INCH', #148 ) LENGTH_UNIT ( ) NAMED_UNIT ( #230 ) );
#25 = AXIS2_PLACEMENT_3D ( 'NONE', #11, #242, #301 ) ;
#26 = DIRECTION ( 'NONE',  ( 1.000000000000000000, 0.000000000000000000, 0.000000000000000000 ) ) ;
#27 = VERTEX_POINT ( 'NONE', #270 ) ;
#28 = EDGE_CURVE ( 'NONE', #298, #103, #184, .T. ) ;
#29 = CLOSED_SHELL ( 'NONE', ( #48, #160, #107, #334, #22, #194, #315, #151, #287, #169, #67 ) ) ;
#30 = CARTESIAN_POINT ( 'NONE',  ( 0.6250000000000000000, 7.654042494670957853E-17, 0.000000000000000000 ) ) ;
#31 = FACE_OUTER_BOUND ( 'NONE', #136, .T. ) ;
#32 = DIRECTION ( 'NONE',  ( -1.000000000000000000, 0.000000000000000000, 0.000000000000000000 ) ) ;
#33 = EDGE_CURVE ( 'NONE', #87, #9, #20, .T. ) ;
#34 = UNCERTAINTY_MEASURE_WITH_UNIT (LENGTH_MEASURE( 1.000000000000000082E-05 ), #24, 'distance_accuracy_value', 'NONE');
#35 = CARTESIAN_POINT ( 'NONE',  ( 0.5904999999999999138, 7.231539348965117618E-17, 2.500000000000000000 ) ) ;
#36 = ORIENTED_EDGE ( 'NONE', *, *, #268, .F. ) ;
#37 = DIRECTION ( 'NONE',  ( 1.000000000000000000, 0.000000000000000000, 0.000000000000000000 ) ) ;
#38 = PLANE ( 'NONE',  #164 ) ;
#39 = EDGE_LOOP ( 'NONE', ( #212, #198 ) ) ;
#40 = CARTESIAN_POINT ( 'NONE',  ( 0.000000000000000000, 0.000000000000000000, 0.000000000000000000 ) ) ;
#41 = LENGTH_MEASURE_WITH_UNIT ( LENGTH_MEASURE( 0.02539999999999999897 ), #199 );
#42 = AXIS2_PLACEMENT_3D ( 'NONE', #263, #292, #335 ) ;
#43 = ORIENTED_EDGE ( 'NONE', *, *, #206, .T. ) ;
#44 = CARTESIAN_POINT ( 'NONE',  ( 0.000000000000000000, 0.000000000000000000, 3.000000000000000444 ) ) ;
#45 = EDGE_LOOP ( 'NONE', ( #140, #146, #309, #3 ) ) ;
#46 = CARTESIAN_POINT ( 'NONE',  ( 0.000000000000000000, 0.000000000000000000, 3.000000000000000444 ) ) ;
#47 = FACE_OUTER_BOUND ( 'NONE', #101, .T. ) ;
#48 = ADVANCED_FACE ( 'NONE', ( #188 ), #100, .F. ) ;
#49 = CIRCLE ( 'NONE', #224, 0.5354330708661416693 ) ;
#50 =( NAMED_UNIT ( * ) SI_UNIT ( $, .STERADIAN. ) SOLID_ANGLE_UNIT ( ) );
#51 = AXIS2_PLACEMENT_3D ( 'NONE', #86, #96, #258 ) ;
#52 = DIRECTION ( 'NONE',  ( -0.000000000000000000, 0.000000000000000000, 1.000000000000000000 ) ) ;
#53 = CARTESIAN_POINT ( 'NONE',  ( -0.5904999999999999138, 0.000000000000000000, 3.000000000000000444 ) ) ;
#54 = ORIENTED_EDGE ( 'NONE', *, *, #269, .T. ) ;
#55 = DIRECTION ( 'NONE',  ( -0.000000000000000000, -0.000000000000000000, -1.000000000000000000 ) ) ;
#56 = ORIENTED_EDGE ( 'NONE', *, *, #153, .F. ) ;
#57 = DIRECTION ( 'NONE',  ( -0.000000000000000000, 0.000000000000000000, 1.000000000000000000 ) ) ;
#58 = CARTESIAN_POINT ( 'NONE',  ( -0.6250000000000000000, 0.000000000000000000, 2.500000000000000000 ) ) ;
#59 = CARTESIAN_POINT ( 'NONE',  ( 0.5654330708661429172, 0.000000000000000000, 3.000000000000000444 ) ) ;
#60 = VECTOR ( 'NONE', #238, 39.37007874015748143 ) ;
#61 = VERTEX_POINT ( 'NONE', #30 ) ;
#62 = DIRECTION ( 'NONE',  ( 1.000000000000000000, 0.000000000000000000, 0.000000000000000000 ) ) ;
#63 = CARTESIAN_POINT ( 'NONE',  ( 0.5354330708661416693, 0.000000000000000000, 2.839999999999990532 ) ) ;
#64 = AXIS2_PLACEMENT_3D ( 'NONE', #241, #249, #192 ) ;
#65 = ORIENTED_EDGE ( 'NONE', *, *, #72, .T. ) ;
#66 = CARTESIAN_POINT ( 'NONE',  ( -0.5354330708661416693, 0.000000000000000000, 0.000000000000000000 ) ) ;
#67 = ADVANCED_FACE ( 'NONE', ( #319 ), #113, .F. ) ;
#68 = EDGE_LOOP ( 'NONE', ( #274, #43, #266, #286 ) ) ;
#69 = FACE_OUTER_BOUND ( 'NONE', #208, .T. ) ;
#70 = EDGE_LOOP ( 'NONE', ( #173, #255, #327, #92 ) ) ;
#71 = FACE_OUTER_BOUND ( 'NONE', #68, .T. ) ;
#72 = EDGE_CURVE ( 'NONE', #12, #116, #264, .T. ) ;
#73 = PRESENTATION_STYLE_ASSIGNMENT (( #229 ) ) ;
#74 =( LENGTH_UNIT ( ) NAMED_UNIT ( * ) SI_UNIT ( $, .METRE. ) );
#75 = DIRECTION ( 'NONE',  ( -0.000000000000000000, -0.000000000000000000, -1.000000000000000000 ) ) ;
#76 = DIRECTION ( 'NONE',  ( 1.000000000000000000, 0.000000000000000000, 0.000000000000000000 ) ) ;
#77 = CARTESIAN_POINT ( 'NONE',  ( 0.000000000000000000, 0.000000000000000000, 0.000000000000000000 ) ) ;
#78 = VERTEX_POINT ( 'NONE', #4 ) ;
#79 = EDGE_CURVE ( 'NONE', #218, #325, #166, .T. ) ;
#80 = DIRECTION ( 'NONE',  ( 0.000000000000000000, -0.000000000000000000, -1.000000000000000000 ) ) ;
#81 = DIRECTION ( 'NONE',  ( -1.000000000000000000, 0.000000000000000000, 0.000000000000000000 ) ) ;
#82 = AXIS2_PLACEMENT_3D ( 'NONE', #322, #296, #187 ) ;
#83 = LINE ( 'NONE', #141, #239 ) ;
#84 = DIRECTION ( 'NONE',  ( -0.1842885350501819175, 2.256883645687600759E-17, 0.9828721869343225448 ) ) ;
#85 = ORIENTED_EDGE ( 'NONE', *, *, #268, .T. ) ;
#86 = CARTESIAN_POINT ( 'NONE',  ( 0.000000000000000000, 0.000000000000000000, 3.000000000000000444 ) ) ;
#87 = VERTEX_POINT ( 'NONE', #106 ) ;
#88 = EDGE_CURVE ( 'NONE', #325, #248, #234, .T. ) ;
#89 = CARTESIAN_POINT ( 'NONE',  ( 0.000000000000000000, 0.000000000000000000, 3.000000000000000444 ) ) ;
#90 = CARTESIAN_POINT ( 'NONE',  ( 0.000000000000000000, 0.000000000000000000, 2.500000000000000000 ) ) ;
#91 = AXIS2_PLACEMENT_3D ( 'NONE', #137, #55, #7 ) ;
#92 = ORIENTED_EDGE ( 'NONE', *, *, #332, .F. ) ;
#93 = CARTESIAN_POINT ( 'NONE',  ( 0.000000000000000000, 0.000000000000000000, 3.000000000000000444 ) ) ;
#94 = ORIENTED_EDGE ( 'NONE', *, *, #244, .T. ) ;
#95 = AXIS2_PLACEMENT_3D ( 'NONE', #178, #109, #123 ) ;
#96 = DIRECTION ( 'NONE',  ( -0.000000000000000000, 0.000000000000000000, 1.000000000000000000 ) ) ;
#97 = DIRECTION ( 'NONE',  ( 0.000000000000000000, 0.000000000000000000, 1.000000000000000000 ) ) ;
#98 = AXIS2_PLACEMENT_3D ( 'NONE', #46, #308, #147 ) ;
#99 =( NAMED_UNIT ( * ) PLANE_ANGLE_UNIT ( ) SI_UNIT ( $, .RADIAN. ) );
#100 = CONICAL_SURFACE ( 'NONE', #25, 0.5354330708661416693, 0.1853479499956912357 ) ;
#101 = EDGE_LOOP ( 'NONE', ( #5, #280 ) ) ;
#102 = PRODUCT_CONTEXT ( 'NONE', #331, 'mechanical' ) ;
#103 = VERTEX_POINT ( 'NONE', #303 ) ;
#104 = PRODUCT_DEFINITION_CONTEXT ( 'detailed design', #177, 'design' ) ;
#105 = FACE_BOUND ( 'NONE', #203, .T. ) ;
#106 = CARTESIAN_POINT ( 'NONE',  ( -0.5904999999999999138, 0.000000000000000000, 2.500000000000000000 ) ) ;
#107 = ADVANCED_FACE ( 'NONE', ( #31 ), #214, .F. ) ;
#108 = DIRECTION ( 'NONE',  ( 1.000000000000000000, 0.000000000000000000, 0.000000000000000000 ) ) ;
#109 = DIRECTION ( 'NONE',  ( -0.000000000000000000, 0.000000000000000000, 1.000000000000000000 ) ) ;
#110 = DIRECTION ( 'NONE',  ( -0.000000000000000000, -0.000000000000000000, -1.000000000000000000 ) ) ;
#111 = CARTESIAN_POINT ( 'NONE',  ( -0.5354330708661416693, 6.557163963938584412E-17, 2.839999999999990532 ) ) ;
#112 = VERTEX_POINT ( 'NONE', #246 ) ;
#113 = CONICAL_SURFACE ( 'NONE', #82, 0.5354330708661416693, 0.1853479499956912357 ) ;
#114 = DIRECTION ( 'NONE',  ( 1.000000000000000000, 0.000000000000000000, 0.000000000000000000 ) ) ;
#115 = DIRECTION ( 'NONE',  ( 1.000000000000000000, 0.000000000000000000, 0.000000000000000000 ) ) ;
#116 = VERTEX_POINT ( 'NONE', #58 ) ;
#117 = EDGE_CURVE ( 'NONE', #9, #87, #305, .T. ) ;
#118 = CYLINDRICAL_SURFACE ( 'NONE', #157, 0.5354330708661416693 ) ;
#119 = CYLINDRICAL_SURFACE ( 'NONE', #197, 0.5904999999999999138 ) ;
#120 = VERTEX_POINT ( 'NONE', #209 ) ;
#121 = DIRECTION ( 'NONE',  ( -0.000000000000000000, 0.000000000000000000, 1.000000000000000000 ) ) ;
#122 = DIMENSIONAL_EXPONENTS ( 1.000000000000000000, 0.000000000000000000, 0.000000000000000000, 0.000000000000000000, 0.000000000000000000, 0.000000000000000000, 0.000000000000000000 ) ;
#123 = DIRECTION ( 'NONE',  ( 1.000000000000000000, 0.000000000000000000, 0.000000000000000000 ) ) ;
#124 = ORIENTED_EDGE ( 'NONE', *, *, #153, .T. ) ;
#125 = FILL_AREA_STYLE ('',( #152 ) ) ;
#126 = APPLICATION_PROTOCOL_DEFINITION ( 'draft international standard', 'automotive_design', 1998, #177 ) ;
#127 = EDGE_CURVE ( 'NONE', #78, #248, #316, .T. ) ;
#128 = DIRECTION ( 'NONE',  ( -0.000000000000000000, -0.000000000000000000, -1.000000000000000000 ) ) ;
#129 = VECTOR ( 'NONE', #75, 39.37007874015748143 ) ;
#130 = CIRCLE ( 'NONE', #18, 0.5904999999999999138 ) ;
#131 = VECTOR ( 'NONE', #84, 39.37007874015748143 ) ;
#132 = APPLICATION_PROTOCOL_DEFINITION ( 'draft international standard', 'automotive_design', 1998, #331 ) ;
#133 = EDGE_CURVE ( 'NONE', #27, #87, #186, .T. ) ;
#134 = AXIS2_PLACEMENT_3D ( 'NONE', #77, #52, #300 ) ;
#135 = CARTESIAN_POINT ( 'NONE',  ( -0.5354330708661416693, 0.000000000000000000, 2.500000000000000000 ) ) ;
#136 = EDGE_LOOP ( 'NONE', ( #142, #163, #220, #196 ) ) ;
#137 = CARTESIAN_POINT ( 'NONE',  ( 0.000000000000000000, 0.000000000000000000, 2.500000000000000000 ) ) ;
#138 = CARTESIAN_POINT ( 'NONE',  ( 0.000000000000000000, 0.000000000000000000, 2.500000000000000000 ) ) ;
#139 = DIRECTION ( 'NONE',  ( 0.000000000000000000, -0.000000000000000000, -1.000000000000000000 ) ) ;
#140 = ORIENTED_EDGE ( 'NONE', *, *, #10, .F. ) ;
#141 = CARTESIAN_POINT ( 'NONE',  ( 0.6250000000000000000, 7.654042494670957853E-17, 2.500000000000000000 ) ) ;
#142 = ORIENTED_EDGE ( 'NONE', *, *, #23, .T. ) ;
#143 = UNCERTAINTY_MEASURE_WITH_UNIT (LENGTH_MEASURE( 1.000000000000000082E-05 ), #273, 'distance_accuracy_value', 'NONE');
#144 = DIRECTION ( 'NONE',  ( 1.000000000000000000, 0.000000000000000000, 0.000000000000000000 ) ) ;
#145 = CARTESIAN_POINT ( 'NONE',  ( -0.6250000000000000000, 0.000000000000000000, 2.500000000000000000 ) ) ;
#146 = ORIENTED_EDGE ( 'NONE', *, *, #294, .F. ) ;
#147 = DIRECTION ( 'NONE',  ( -1.000000000000000000, 0.000000000000000000, 0.000000000000000000 ) ) ;
#148 = LENGTH_MEASURE_WITH_UNIT ( LENGTH_MEASURE( 0.02539999999999999897 ), #74 );
#149 = AXIS2_PLACEMENT_3D ( 'NONE', #297, #281, #144 ) ;
#150 = ORIENTED_EDGE ( 'NONE', *, *, #28, .F. ) ;
#151 = ADVANCED_FACE ( 'NONE', ( #2, #105 ), #317, .F. ) ;
#152 = FILL_AREA_STYLE_COLOUR ( '', #174 ) ;
#153 = EDGE_CURVE ( 'NONE', #248, #325, #179, .T. ) ;
#154 = ORIENTED_EDGE ( 'NONE', *, *, #79, .T. ) ;
#155 = PLANE ( 'NONE',  #288 ) ;
#156 = DIRECTION ( 'NONE',  ( -0.000000000000000000, 0.000000000000000000, 1.000000000000000000 ) ) ;
#157 = AXIS2_PLACEMENT_3D ( 'NONE', #262, #259, #253 ) ;
#158 =( GEOMETRIC_REPRESENTATION_CONTEXT ( 3 ) GLOBAL_UNCERTAINTY_ASSIGNED_CONTEXT ( ( #143 ) ) GLOBAL_UNIT_ASSIGNED_CONTEXT ( ( #273, #276, #50 ) ) REPRESENTATION_CONTEXT ( 'NONE', 'WORKASPACE' ) );
#159 = EDGE_CURVE ( 'NONE', #27, #112, #232, .T. ) ;
#160 = ADVANCED_FACE ( 'NONE', ( #71 ), #328, .T. ) ;
#161 = AXIS2_PLACEMENT_3D ( 'NONE', #44, #19, #310 ) ;
#162 = CARTESIAN_POINT ( 'NONE',  ( 0.5354330708661416693, 6.557163963938584412E-17, 2.500000000000000000 ) ) ;
#163 = ORIENTED_EDGE ( 'NONE', *, *, #127, .T. ) ;
#164 = AXIS2_PLACEMENT_3D ( 'NONE', #323, #226, #13 ) ;
#165 = DIRECTION ( 'NONE',  ( -0.000000000000000000, -0.000000000000000000, -1.000000000000000000 ) ) ;
#166 = LINE ( 'NONE', #135, #289 ) ;
#167 = DIRECTION ( 'NONE',  ( 1.000000000000000000, 0.000000000000000000, 0.000000000000000000 ) ) ;
#168 = DIRECTION ( 'NONE',  ( -0.000000000000000000, -0.000000000000000000, -1.000000000000000000 ) ) ;
#169 = ADVANCED_FACE ( 'NONE', ( #290, #47 ), #155, .T. ) ;
#170 = CARTESIAN_POINT ( 'NONE',  ( 0.000000000000000000, 0.000000000000000000, 2.500000000000000000 ) ) ;
#171 = DIRECTION ( 'NONE',  ( -0.000000000000000000, -0.000000000000000000, -1.000000000000000000 ) ) ;
#172 = ORIENTED_EDGE ( 'NONE', *, *, #23, .F. ) ;
#173 = ORIENTED_EDGE ( 'NONE', *, *, #72, .F. ) ;
#174 = COLOUR_RGB ( '',0.7921568627450980005, 0.8196078431372548767, 0.9333333333333333481 ) ;
#175 = LINE ( 'NONE', #145, #284 ) ;
#176 = EDGE_LOOP ( 'NONE', ( #307, #94 ) ) ;
#177 = APPLICATION_CONTEXT ( 'automotive_design' ) ;
#178 = CARTESIAN_POINT ( 'NONE',  ( 0.000000000000000000, 0.000000000000000000, 0.000000000000000000 ) ) ;
#179 = CIRCLE ( 'NONE', #6, 0.5354330708661416693 ) ;
#180 = FACE_OUTER_BOUND ( 'NONE', #283, .T. ) ;
#181 = ORIENTED_EDGE ( 'NONE', *, *, #294, .T. ) ;
#182 = DIRECTION ( 'NONE',  ( 1.000000000000000000, 0.000000000000000000, 0.000000000000000000 ) ) ;
#183 = AXIS2_PLACEMENT_3D ( 'NONE', #138, #80, #167 ) ;
#184 = CIRCLE ( 'NONE', #291, 0.5654330708661429172 ) ;
#185 = MECHANICAL_DESIGN_GEOMETRIC_PRESENTATION_REPRESENTATION (  '', ( #233 ), #21 ) ;
#186 = LINE ( 'NONE', #53, #60 ) ;
#187 = DIRECTION ( 'NONE',  ( 1.000000000000000000, 0.000000000000000000, 0.000000000000000000 ) ) ;
#188 = FACE_OUTER_BOUND ( 'NONE', #223, .T. ) ;
#189 = PRODUCT_DEFINITION_SHAPE ( 'NONE', 'NONE',  #314 ) ;
#190 = ORIENTED_EDGE ( 'NONE', *, *, #117, .F. ) ;
#191 = AXIS2_PLACEMENT_3D ( 'NONE', #306, #121, #219 ) ;
#192 = DIRECTION ( 'NONE',  ( 1.000000000000000000, 0.000000000000000000, 0.000000000000000000 ) ) ;
#193 = DIRECTION ( 'NONE',  ( 0.1842885350501819175, 0.000000000000000000, 0.9828721869343225448 ) ) ;
#194 = ADVANCED_FACE ( 'NONE', ( #221 ), #118, .F. ) ;
#195 = DIRECTION ( 'NONE',  ( -0.000000000000000000, -0.000000000000000000, -1.000000000000000000 ) ) ;
#196 = ORIENTED_EDGE ( 'NONE', *, *, #79, .F. ) ;
#197 = AXIS2_PLACEMENT_3D ( 'NONE', #250, #326, #279 ) ;
#198 = ORIENTED_EDGE ( 'NONE', *, *, #261, .F. ) ;
#199 =( LENGTH_UNIT ( ) NAMED_UNIT ( * ) SI_UNIT ( $, .METRE. ) );
#200 = EDGE_LOOP ( 'NONE', ( #330, #252 ) ) ;
#201 = DIRECTION ( 'NONE',  ( -0.000000000000000000, 0.000000000000000000, 1.000000000000000000 ) ) ;
#202 = LINE ( 'NONE', #111, #131 ) ;
#203 = EDGE_LOOP ( 'NONE', ( #318, #124 ) ) ;
#204 = LINE ( 'NONE', #15, #1 ) ;
#205 = SHAPE_DEFINITION_REPRESENTATION ( #189, #295 ) ;
#206 = EDGE_CURVE ( 'NONE', #112, #9, #204, .T. ) ;
#207 = EDGE_CURVE ( 'NONE', #78, #218, #49, .T. ) ;
#208 = EDGE_LOOP ( 'NONE', ( #240, #227, #211, #190 ) ) ;
#209 = CARTESIAN_POINT ( 'NONE',  ( -0.6250000000000000000, 0.000000000000000000, 0.000000000000000000 ) ) ;
#210 = CIRCLE ( 'NONE', #95, 0.6250000000000000000 ) ;
#211 = ORIENTED_EDGE ( 'NONE', *, *, #133, .T. ) ;
#212 = ORIENTED_EDGE ( 'NONE', *, *, #216, .F. ) ;
#213 = CYLINDRICAL_SURFACE ( 'NONE', #91, 0.6250000000000000000 ) ;
#214 = CYLINDRICAL_SURFACE ( 'NONE', #236, 0.5354330708661416693 ) ;
#215 = CARTESIAN_POINT ( 'NONE',  ( 0.000000000000000000, 0.000000000000000000, 2.500000000000000000 ) ) ;
#216 = EDGE_CURVE ( 'NONE', #120, #61, #256, .T. ) ;
#217 = CARTESIAN_POINT ( 'NONE',  ( 0.000000000000000000, 0.000000000000000000, 2.500000000000000000 ) ) ;
#218 = VERTEX_POINT ( 'NONE', #17 ) ;
#219 = DIRECTION ( 'NONE',  ( 1.000000000000000000, 0.000000000000000000, 0.000000000000000000 ) ) ;
#220 = ORIENTED_EDGE ( 'NONE', *, *, #88, .F. ) ;
#221 = FACE_OUTER_BOUND ( 'NONE', #277, .T. ) ;
#222 = CYLINDRICAL_SURFACE ( 'NONE', #320, 0.6250000000000000000 ) ;
#223 = EDGE_LOOP ( 'NONE', ( #172, #54, #150, #36 ) ) ;
#224 = AXIS2_PLACEMENT_3D ( 'NONE', #225, #97, #114 ) ;
#225 = CARTESIAN_POINT ( 'NONE',  ( 0.000000000000000000, 0.000000000000000000, 2.839999999999990532 ) ) ;
#226 = DIRECTION ( 'NONE',  ( -0.000000000000000000, 0.000000000000000000, 1.000000000000000000 ) ) ;
#227 = ORIENTED_EDGE ( 'NONE', *, *, #159, .F. ) ;
#228 = PRESENTATION_LAYER_ASSIGNMENT (  '', '', ( #233 ) ) ;
#229 = SURFACE_STYLE_USAGE ( .BOTH. , #312 ) ;
#230 = DIMENSIONAL_EXPONENTS ( 1.000000000000000000, 0.000000000000000000, 0.000000000000000000, 0.000000000000000000, 0.000000000000000000, 0.000000000000000000, 0.000000000000000000 ) ;
#231 = SURFACE_STYLE_FILL_AREA ( #125 ) ;
#232 = CIRCLE ( 'NONE', #51, 0.5904999999999999138 ) ;
#233 = STYLED_ITEM ( 'NONE', ( #73 ), #245 ) ;
#234 = CIRCLE ( 'NONE', #134, 0.5354330708661416693 ) ;
#235 = PRODUCT_DEFINITION_FORMATION_WITH_SPECIFIED_SOURCE ( 'ANY', '', #299, .NOT_KNOWN. ) ;
#236 = AXIS2_PLACEMENT_3D ( 'NONE', #272, #195, #32 ) ;
#237 = EDGE_CURVE ( 'NONE', #112, #27, #130, .T. ) ;
#238 = DIRECTION ( 'NONE',  ( -0.000000000000000000, -0.000000000000000000, -1.000000000000000000 ) ) ;
#239 = VECTOR ( 'NONE', #110, 39.37007874015748143 ) ;
#240 = ORIENTED_EDGE ( 'NONE', *, *, #206, .F. ) ;
#241 = CARTESIAN_POINT ( 'NONE',  ( 0.000000000000000000, 0.000000000000000000, 2.839999999999990532 ) ) ;
#242 = DIRECTION ( 'NONE',  ( 0.000000000000000000, 0.000000000000000000, 1.000000000000000000 ) ) ;
#243 = DIRECTION ( 'NONE',  ( -0.000000000000000000, 0.000000000000000000, 1.000000000000000000 ) ) ;
#244 = EDGE_CURVE ( 'NONE', #103, #298, #333, .T. ) ;
#245 = MANIFOLD_SOLID_BREP ( 'Chamfer1', #29 ) ;
#246 = CARTESIAN_POINT ( 'NONE',  ( 0.5904999999999999138, 7.231539348965117618E-17, 3.000000000000000444 ) ) ;
#247 =( NAMED_UNIT ( * ) SI_UNIT ( $, .STERADIAN. ) SOLID_ANGLE_UNIT ( ) );
#248 = VERTEX_POINT ( 'NONE', #282 ) ;
#249 = DIRECTION ( 'NONE',  ( 0.000000000000000000, 0.000000000000000000, 1.000000000000000000 ) ) ;
#250 = CARTESIAN_POINT ( 'NONE',  ( 0.000000000000000000, 0.000000000000000000, 3.000000000000000444 ) ) ;
#251 = ORIENTED_EDGE ( 'NONE', *, *, #269, .F. ) ;
#252 = ORIENTED_EDGE ( 'NONE', *, *, #117, .T. ) ;
#253 = DIRECTION ( 'NONE',  ( -1.000000000000000000, 0.000000000000000000, 0.000000000000000000 ) ) ;
#254 = FACE_OUTER_BOUND ( 'NONE', #70, .T. ) ;
#255 = ORIENTED_EDGE ( 'NONE', *, *, #10, .T. ) ;
#256 = CIRCLE ( 'NONE', #191, 0.6250000000000000000 ) ;
#257 = CIRCLE ( 'NONE', #64, 0.5354330708661416693 ) ;
#258 = DIRECTION ( 'NONE',  ( 1.000000000000000000, 0.000000000000000000, 0.000000000000000000 ) ) ;
#259 = DIRECTION ( 'NONE',  ( -0.000000000000000000, -0.000000000000000000, -1.000000000000000000 ) ) ;
#260 = PRODUCT_RELATED_PRODUCT_CATEGORY ( 'part', '', ( #299 ) ) ;
#261 = EDGE_CURVE ( 'NONE', #61, #120, #210, .T. ) ;
#262 = CARTESIAN_POINT ( 'NONE',  ( 0.000000000000000000, 0.000000000000000000, 2.500000000000000000 ) ) ;
#263 = CARTESIAN_POINT ( 'NONE',  ( 0.000000000000000000, 0.000000000000000000, 0.000000000000000000 ) ) ;
#264 = CIRCLE ( 'NONE', #313, 0.6250000000000000000 ) ;
#265 = CARTESIAN_POINT ( 'NONE',  ( 0.6250000000000000000, 7.654042494670957853E-17, 2.500000000000000000 ) ) ;
#266 = ORIENTED_EDGE ( 'NONE', *, *, #33, .F. ) ;
#267 = FACE_OUTER_BOUND ( 'NONE', #45, .T. ) ;
#268 = EDGE_CURVE ( 'NONE', #78, #298, #302, .T. ) ;
#269 = EDGE_CURVE ( 'NONE', #218, #103, #202, .T. ) ;
#270 = CARTESIAN_POINT ( 'NONE',  ( -0.5904999999999999138, 0.000000000000000000, 3.000000000000000444 ) ) ;
#271 = VECTOR ( 'NONE', #193, 39.37007874015748143 ) ;
#272 = CARTESIAN_POINT ( 'NONE',  ( 0.000000000000000000, 0.000000000000000000, 2.500000000000000000 ) ) ;
#273 =( CONVERSION_BASED_UNIT ( 'INCH', #41 ) LENGTH_UNIT ( ) NAMED_UNIT ( #122 ) );
#274 = ORIENTED_EDGE ( 'NONE', *, *, #237, .F. ) ;
#275 = DIRECTION ( 'NONE',  ( 0.000000000000000000, -0.000000000000000000, -1.000000000000000000 ) ) ;
#276 =( NAMED_UNIT ( * ) PLANE_ANGLE_UNIT ( ) SI_UNIT ( $, .RADIAN. ) );
#277 = EDGE_LOOP ( 'NONE', ( #16, #329, #154, #56 ) ) ;
#278 = DIRECTION ( 'NONE',  ( -0.000000000000000000, 0.000000000000000000, 1.000000000000000000 ) ) ;
#279 = DIRECTION ( 'NONE',  ( -1.000000000000000000, 0.000000000000000000, 0.000000000000000000 ) ) ;
#280 = ORIENTED_EDGE ( 'NONE', *, *, #237, .T. ) ;
#281 = DIRECTION ( 'NONE',  ( -0.000000000000000000, 0.000000000000000000, 1.000000000000000000 ) ) ;
#282 = CARTESIAN_POINT ( 'NONE',  ( 0.5354330708661416693, 6.557163963938584412E-17, 0.000000000000000000 ) ) ;
#283 = EDGE_LOOP ( 'NONE', ( #181, #65 ) ) ;
#284 = VECTOR ( 'NONE', #168, 39.37007874015748143 ) ;
#285 = CIRCLE ( 'NONE', #293, 0.6250000000000000000 ) ;
#286 = ORIENTED_EDGE ( 'NONE', *, *, #133, .F. ) ;
#287 = ADVANCED_FACE ( 'NONE', ( #69 ), #119, .T. ) ;
#288 = AXIS2_PLACEMENT_3D ( 'NONE', #89, #278, #37 ) ;
#289 = VECTOR ( 'NONE', #165, 39.37007874015748143 ) ;
#290 = FACE_BOUND ( 'NONE', #176, .T. ) ;
#291 = AXIS2_PLACEMENT_3D ( 'NONE', #324, #139, #108 ) ;
#292 = DIRECTION ( 'NONE',  ( 0.000000000000000000, 0.000000000000000000, 1.000000000000000000 ) ) ;
#293 = AXIS2_PLACEMENT_3D ( 'NONE', #215, #243, #115 ) ;
#294 = EDGE_CURVE ( 'NONE', #116, #12, #285, .T. ) ;
#295 = ADVANCED_BREP_SHAPE_REPRESENTATION ( 'MS0041', ( #245, #42 ), #158 ) ;
#296 = DIRECTION ( 'NONE',  ( 0.000000000000000000, 0.000000000000000000, 1.000000000000000000 ) ) ;
#297 = CARTESIAN_POINT ( 'NONE',  ( 0.000000000000000000, 0.000000000000000000, 0.000000000000000000 ) ) ;
#298 = VERTEX_POINT ( 'NONE', #59 ) ;
#299 = PRODUCT ( 'MS0041', 'MS0041', '', ( #102 ) ) ;
#300 = DIRECTION ( 'NONE',  ( 1.000000000000000000, 0.000000000000000000, 0.000000000000000000 ) ) ;
#301 = DIRECTION ( 'NONE',  ( 1.000000000000000000, 0.000000000000000000, 0.000000000000000000 ) ) ;
#302 = LINE ( 'NONE', #63, #271 ) ;
#303 = CARTESIAN_POINT ( 'NONE',  ( -0.5654330708661429172, 6.924558003682805584E-17, 3.000000000000000444 ) ) ;
#304 = ORIENTED_EDGE ( 'NONE', *, *, #207, .F. ) ;
#305 = CIRCLE ( 'NONE', #321, 0.5904999999999999138 ) ;
#306 = CARTESIAN_POINT ( 'NONE',  ( 0.000000000000000000, 0.000000000000000000, 0.000000000000000000 ) ) ;
#307 = ORIENTED_EDGE ( 'NONE', *, *, #28, .T. ) ;
#308 = DIRECTION ( 'NONE',  ( -0.000000000000000000, -0.000000000000000000, -1.000000000000000000 ) ) ;
#309 = ORIENTED_EDGE ( 'NONE', *, *, #332, .T. ) ;
#310 = DIRECTION ( 'NONE',  ( 1.000000000000000000, 0.000000000000000000, 0.000000000000000000 ) ) ;
#311 = EDGE_LOOP ( 'NONE', ( #251, #304, #85, #14 ) ) ;
#312 = SURFACE_SIDE_STYLE ('',( #231 ) ) ;
#313 = AXIS2_PLACEMENT_3D ( 'NONE', #217, #57, #26 ) ;
#314 = PRODUCT_DEFINITION ( 'UNKNOWN', '', #235, #104 ) ;
#315 = ADVANCED_FACE ( 'NONE', ( #8, #180 ), #38, .T. ) ;
#316 = LINE ( 'NONE', #162, #129 ) ;
#317 = PLANE ( 'NONE',  #149 ) ;
#318 = ORIENTED_EDGE ( 'NONE', *, *, #88, .T. ) ;
#319 = FACE_OUTER_BOUND ( 'NONE', #311, .T. ) ;
#320 = AXIS2_PLACEMENT_3D ( 'NONE', #90, #171, #81 ) ;
#321 = AXIS2_PLACEMENT_3D ( 'NONE', #170, #275, #76 ) ;
#322 = CARTESIAN_POINT ( 'NONE',  ( 0.000000000000000000, 0.000000000000000000, 2.839999999999990532 ) ) ;
#323 = CARTESIAN_POINT ( 'NONE',  ( 0.000000000000000000, 0.000000000000000000, 2.500000000000000000 ) ) ;
#324 = CARTESIAN_POINT ( 'NONE',  ( 0.000000000000000000, 0.000000000000000000, 3.000000000000000444 ) ) ;
#325 = VERTEX_POINT ( 'NONE', #66 ) ;
#326 = DIRECTION ( 'NONE',  ( -0.000000000000000000, -0.000000000000000000, -1.000000000000000000 ) ) ;
#327 = ORIENTED_EDGE ( 'NONE', *, *, #261, .T. ) ;
#328 = CYLINDRICAL_SURFACE ( 'NONE', #98, 0.5904999999999999138 ) ;
#329 = ORIENTED_EDGE ( 'NONE', *, *, #207, .T. ) ;
#330 = ORIENTED_EDGE ( 'NONE', *, *, #33, .T. ) ;
#331 = APPLICATION_CONTEXT ( 'automotive_design' ) ;
#332 = EDGE_CURVE ( 'NONE', #116, #120, #175, .T. ) ;
#333 = CIRCLE ( 'NONE', #161, 0.5654330708661429172 ) ;
#334 = ADVANCED_FACE ( 'NONE', ( #254 ), #222, .T. ) ;
#335 = DIRECTION ( 'NONE',  ( 1.000000000000000000, 0.000000000000000000, 0.000000000000000000 ) ) ;
ENDSEC;
END-ISO-10303-21;
