ISO-10303-21;
HEADER;
FILE_DESCRIPTION (( 'STEP AP214' ),
    '1' );
FILE_NAME ('MS0034.STEP',
    '2025-05-08T16:25:29',
    ( '' ),
    ( '' ),
    'SwSTEP 2.0',
    'SolidWorks 2023',
    '' );
FILE_SCHEMA (( 'AUTOMOTIVE_DESIGN' ));
ENDSEC;

DATA;
#1 = AXIS2_PLACEMENT_3D ( 'NONE', #172, #19, #64 ) ;
#2 = CARTESIAN_POINT ( 'NONE',  ( -0.6875000000000000000, 0.000000000000000000, 0.000000000000000000 ) ) ;
#3 = DIRECTION ( 'NONE',  ( -0.000000000000000000, -0.000000000000000000, -1.000000000000000000 ) ) ;
#4 = CARTESIAN_POINT ( 'NONE',  ( 0.6875000000000000000, 8.419446744138052529E-17, 3.500000000000000000 ) ) ;
#5 = DIRECTION ( 'NONE',  ( -0.000000000000000000, -0.000000000000000000, -1.000000000000000000 ) ) ;
#6 = CIRCLE ( 'NONE', #41, 0.6875000000000000000 ) ;
#7 = VERTEX_POINT ( 'NONE', #171 ) ;
#8 = DIRECTION ( 'NONE',  ( -0.000000000000000000, 0.000000000000000000, 1.000000000000000000 ) ) ;
#9 = DIRECTION ( 'NONE',  ( 0.000000000000000000, -0.000000000000000000, -1.000000000000000000 ) ) ;
#10 = FACE_OUTER_BOUND ( 'NONE', #280, .T. ) ;
#11 = EDGE_CURVE ( 'NONE', #38, #124, #73, .T. ) ;
#12 = ORIENTED_EDGE ( 'NONE', *, *, #67, .T. ) ;
#13 = PRODUCT_CONTEXT ( 'NONE', #149, 'mechanical' ) ;
#14 = CARTESIAN_POINT ( 'NONE',  ( 0.000000000000000000, 0.000000000000000000, 4.000000000000000000 ) ) ;
#15 = ORIENTED_EDGE ( 'NONE', *, *, #274, .F. ) ;
#16 = STYLED_ITEM ( 'NONE', ( #232 ), #230 ) ;
#17 = AXIS2_PLACEMENT_3D ( 'NONE', #273, #180, #53 ) ;
#18 = ORIENTED_EDGE ( 'NONE', *, *, #34, .F. ) ;
#19 = DIRECTION ( 'NONE',  ( -0.000000000000000000, 0.000000000000000000, 1.000000000000000000 ) ) ;
#20 = DIRECTION ( 'NONE',  ( 1.000000000000000000, 0.000000000000000000, 0.000000000000000000 ) ) ;
#21 = CYLINDRICAL_SURFACE ( 'NONE', #27, 0.6220472440944883052 ) ;
#22 = PLANE ( 'NONE',  #281 ) ;
#23 = DIRECTION ( 'NONE',  ( 1.000000000000000000, 0.000000000000000000, 0.000000000000000000 ) ) ;
#24 = VERTEX_POINT ( 'NONE', #235 ) ;
#25 = DIRECTION ( 'NONE',  ( 1.000000000000000000, 0.000000000000000000, 0.000000000000000000 ) ) ;
#26 = AXIS2_PLACEMENT_3D ( 'NONE', #72, #51, #136 ) ;
#27 = AXIS2_PLACEMENT_3D ( 'NONE', #129, #48, #63 ) ;
#28 = LENGTH_MEASURE_WITH_UNIT ( LENGTH_MEASURE( 0.02539999999999999897 ), #211 );
#29 = DIRECTION ( 'NONE',  ( 1.000000000000000000, 0.000000000000000000, 0.000000000000000000 ) ) ;
#30 = CIRCLE ( 'NONE', #17, 0.6875000000000000000 ) ;
#31 =( NAMED_UNIT ( * ) SI_UNIT ( $, .STERADIAN. ) SOLID_ANGLE_UNIT ( ) );
#32 = DIRECTION ( 'NONE',  ( 1.000000000000000000, 0.000000000000000000, 0.000000000000000000 ) ) ;
#33 =( CONVERSION_BASED_UNIT ( 'INCH', #78 ) LENGTH_UNIT ( ) NAMED_UNIT ( #261 ) );
#34 = EDGE_CURVE ( 'NONE', #155, #7, #165, .T. ) ;
#35 = CARTESIAN_POINT ( 'NONE',  ( 0.6520000000000000240, 7.984697130440742487E-17, 4.000000000000000000 ) ) ;
#36 = CIRCLE ( 'NONE', #139, 0.6520000000000000240 ) ;
#37 = ORIENTED_EDGE ( 'NONE', *, *, #274, .T. ) ;
#38 = VERTEX_POINT ( 'NONE', #35 ) ;
#39 = EDGE_CURVE ( 'NONE', #124, #38, #237, .T. ) ;
#40 = EDGE_LOOP ( 'NONE', ( #119, #188, #262, #239 ) ) ;
#41 = AXIS2_PLACEMENT_3D ( 'NONE', #252, #69, #253 ) ;
#42 = CARTESIAN_POINT ( 'NONE',  ( 0.000000000000000000, 0.000000000000000000, 3.500000000000000000 ) ) ;
#43 = DIRECTION ( 'NONE',  ( 1.000000000000000000, 0.000000000000000000, 0.000000000000000000 ) ) ;
#44 = CYLINDRICAL_SURFACE ( 'NONE', #271, 0.6875000000000000000 ) ;
#45 = CIRCLE ( 'NONE', #247, 0.6520000000000000240 ) ;
#46 = AXIS2_PLACEMENT_3D ( 'NONE', #257, #234, #32 ) ;
#47 = FACE_OUTER_BOUND ( 'NONE', #58, .T. ) ;
#48 = DIRECTION ( 'NONE',  ( -0.000000000000000000, -0.000000000000000000, -1.000000000000000000 ) ) ;
#49 = EDGE_CURVE ( 'NONE', #38, #144, #112, .T. ) ;
#50 =( CONVERSION_BASED_UNIT ( 'INCH', #28 ) LENGTH_UNIT ( ) NAMED_UNIT ( #60 ) );
#51 = DIRECTION ( 'NONE',  ( -0.000000000000000000, 0.000000000000000000, 1.000000000000000000 ) ) ;
#52 = PLANE ( 'NONE',  #126 ) ;
#53 = DIRECTION ( 'NONE',  ( 1.000000000000000000, 0.000000000000000000, 0.000000000000000000 ) ) ;
#54 = VECTOR ( 'NONE', #93, 39.37007874015748143 ) ;
#55 = AXIS2_PLACEMENT_3D ( 'NONE', #14, #128, #20 ) ;
#56 = CARTESIAN_POINT ( 'NONE',  ( 0.000000000000000000, 0.000000000000000000, 3.500000000000000000 ) ) ;
#57 = VERTEX_POINT ( 'NONE', #2 ) ;
#58 = EDGE_LOOP ( 'NONE', ( #192, #168, #104, #282 ) ) ;
#59 = EDGE_CURVE ( 'NONE', #91, #24, #90, .T. ) ;
#60 = DIMENSIONAL_EXPONENTS ( 1.000000000000000000, 0.000000000000000000, 0.000000000000000000, 0.000000000000000000, 0.000000000000000000, 0.000000000000000000, 0.000000000000000000 ) ;
#61 = ORIENTED_EDGE ( 'NONE', *, *, #254, .T. ) ;
#62 = FACE_OUTER_BOUND ( 'NONE', #278, .T. ) ;
#63 = DIRECTION ( 'NONE',  ( -1.000000000000000000, 0.000000000000000000, 0.000000000000000000 ) ) ;
#64 = DIRECTION ( 'NONE',  ( 1.000000000000000000, 0.000000000000000000, 0.000000000000000000 ) ) ;
#65 = DIRECTION ( 'NONE',  ( -0.000000000000000000, -0.000000000000000000, -1.000000000000000000 ) ) ;
#66 = DIRECTION ( 'NONE',  ( -0.000000000000000000, 0.000000000000000000, 1.000000000000000000 ) ) ;
#67 = EDGE_CURVE ( 'NONE', #167, #144, #36, .T. ) ;
#68 = ORIENTED_EDGE ( 'NONE', *, *, #284, .F. ) ;
#69 = DIRECTION ( 'NONE',  ( -0.000000000000000000, 0.000000000000000000, 1.000000000000000000 ) ) ;
#70 = PRODUCT ( 'MS0034', 'MS0034', '', ( #13 ) ) ;
#71 = DIRECTION ( 'NONE',  ( 1.000000000000000000, 0.000000000000000000, 0.000000000000000000 ) ) ;
#72 = CARTESIAN_POINT ( 'NONE',  ( 0.000000000000000000, 0.000000000000000000, 0.000000000000000000 ) ) ;
#73 = CIRCLE ( 'NONE', #46, 0.6520000000000000240 ) ;
#74 = FILL_AREA_STYLE ('',( #118 ) ) ;
#75 = SHAPE_DEFINITION_REPRESENTATION ( #111, #174 ) ;
#76 = AXIS2_PLACEMENT_3D ( 'NONE', #92, #270, #135 ) ;
#77 = AXIS2_PLACEMENT_3D ( 'NONE', #56, #214, #142 ) ;
#78 = LENGTH_MEASURE_WITH_UNIT ( LENGTH_MEASURE( 0.02539999999999999897 ), #275 );
#79 = ORIENTED_EDGE ( 'NONE', *, *, #202, .F. ) ;
#80 = ADVANCED_FACE ( 'NONE', ( #106 ), #44, .T. ) ;
#81 = EDGE_LOOP ( 'NONE', ( #190, #251 ) ) ;
#82 = ORIENTED_EDGE ( 'NONE', *, *, #49, .F. ) ;
#83 = ORIENTED_EDGE ( 'NONE', *, *, #191, .F. ) ;
#84 = CARTESIAN_POINT ( 'NONE',  ( -0.6220472440944883052, 0.000000000000000000, 3.500000000000000000 ) ) ;
#85 = DIRECTION ( 'NONE',  ( -1.000000000000000000, 0.000000000000000000, 0.000000000000000000 ) ) ;
#86 = FACE_OUTER_BOUND ( 'NONE', #143, .T. ) ;
#87 = CYLINDRICAL_SURFACE ( 'NONE', #178, 0.6520000000000000240 ) ;
#88 = ADVANCED_FACE ( 'NONE', ( #195 ), #87, .T. ) ;
#89 = VECTOR ( 'NONE', #207, 39.37007874015748143 ) ;
#90 = LINE ( 'NONE', #84, #107 ) ;
#91 = VERTEX_POINT ( 'NONE', #265 ) ;
#92 = CARTESIAN_POINT ( 'NONE',  ( 0.000000000000000000, 0.000000000000000000, 3.500000000000000000 ) ) ;
#93 = DIRECTION ( 'NONE',  ( -0.000000000000000000, -0.000000000000000000, -1.000000000000000000 ) ) ;
#94 = CYLINDRICAL_SURFACE ( 'NONE', #76, 0.6875000000000000000 ) ;
#95 = DIRECTION ( 'NONE',  ( 1.000000000000000000, 0.000000000000000000, 0.000000000000000000 ) ) ;
#96 = ADVANCED_FACE ( 'NONE', ( #47 ), #285, .F. ) ;
#97 = ADVANCED_FACE ( 'NONE', ( #264 ), #21, .F. ) ;
#98 = EDGE_LOOP ( 'NONE', ( #12, #166 ) ) ;
#99 = VERTEX_POINT ( 'NONE', #220 ) ;
#100 = VERTEX_POINT ( 'NONE', #176 ) ;
#101 = EDGE_LOOP ( 'NONE', ( #260, #186, #15, #204 ) ) ;
#102 =( GEOMETRIC_REPRESENTATION_CONTEXT ( 3 ) GLOBAL_UNCERTAINTY_ASSIGNED_CONTEXT ( ( #181 ) ) GLOBAL_UNIT_ASSIGNED_CONTEXT ( ( #50, #182, #31 ) ) REPRESENTATION_CONTEXT ( 'NONE', 'WORKASPACE' ) );
#103 = AXIS2_PLACEMENT_3D ( 'NONE', #224, #5, #242 ) ;
#104 = ORIENTED_EDGE ( 'NONE', *, *, #59, .T. ) ;
#105 = DIRECTION ( 'NONE',  ( -1.000000000000000000, 0.000000000000000000, 0.000000000000000000 ) ) ;
#106 = FACE_OUTER_BOUND ( 'NONE', #238, .T. ) ;
#107 = VECTOR ( 'NONE', #65, 39.37007874015748143 ) ;
#108 = FACE_BOUND ( 'NONE', #98, .T. ) ;
#109 = EDGE_CURVE ( 'NONE', #124, #167, #263, .T. ) ;
#110 = CARTESIAN_POINT ( 'NONE',  ( -0.6520000000000000240, 0.000000000000000000, 4.000000000000000000 ) ) ;
#111 = PRODUCT_DEFINITION_SHAPE ( 'NONE', 'NONE',  #189 ) ;
#112 = LINE ( 'NONE', #201, #197 ) ;
#113 = EDGE_LOOP ( 'NONE', ( #37, #141 ) ) ;
#114 = CIRCLE ( 'NONE', #277, 0.6220472440944883052 ) ;
#115 = LINE ( 'NONE', #255, #54 ) ;
#116 = CARTESIAN_POINT ( 'NONE',  ( 0.000000000000000000, 0.000000000000000000, 0.000000000000000000 ) ) ;
#117 = CARTESIAN_POINT ( 'NONE',  ( 0.000000000000000000, 0.000000000000000000, 4.000000000000000000 ) ) ;
#118 = FILL_AREA_STYLE_COLOUR ( '', #203 ) ;
#119 = ORIENTED_EDGE ( 'NONE', *, *, #11, .F. ) ;
#120 =( NAMED_UNIT ( * ) SI_UNIT ( $, .STERADIAN. ) SOLID_ANGLE_UNIT ( ) );
#121 = ORIENTED_EDGE ( 'NONE', *, *, #187, .F. ) ;
#122 = EDGE_LOOP ( 'NONE', ( #145, #258 ) ) ;
#123 = CARTESIAN_POINT ( 'NONE',  ( 0.000000000000000000, 0.000000000000000000, 0.000000000000000000 ) ) ;
#124 = VERTEX_POINT ( 'NONE', #127 ) ;
#125 = PRESENTATION_LAYER_ASSIGNMENT (  '', '', ( #16 ) ) ;
#126 = AXIS2_PLACEMENT_3D ( 'NONE', #117, #133, #29 ) ;
#127 = CARTESIAN_POINT ( 'NONE',  ( -0.6520000000000000240, 0.000000000000000000, 4.000000000000000000 ) ) ;
#128 = DIRECTION ( 'NONE',  ( -0.000000000000000000, 0.000000000000000000, 1.000000000000000000 ) ) ;
#129 = CARTESIAN_POINT ( 'NONE',  ( 0.000000000000000000, 0.000000000000000000, 3.500000000000000000 ) ) ;
#130 = CARTESIAN_POINT ( 'NONE',  ( 0.6520000000000000240, 7.984697130440742487E-17, 3.500000000000000000 ) ) ;
#131 = DIRECTION ( 'NONE',  ( -1.000000000000000000, 0.000000000000000000, 0.000000000000000000 ) ) ;
#132 = ORIENTED_EDGE ( 'NONE', *, *, #249, .F. ) ;
#133 = DIRECTION ( 'NONE',  ( -0.000000000000000000, 0.000000000000000000, 1.000000000000000000 ) ) ;
#134 = EDGE_CURVE ( 'NONE', #100, #24, #259, .T. ) ;
#135 = DIRECTION ( 'NONE',  ( -1.000000000000000000, 0.000000000000000000, 0.000000000000000000 ) ) ;
#136 = DIRECTION ( 'NONE',  ( 1.000000000000000000, 0.000000000000000000, 0.000000000000000000 ) ) ;
#137 = DIRECTION ( 'NONE',  ( -0.000000000000000000, -0.000000000000000000, -1.000000000000000000 ) ) ;
#138 = CARTESIAN_POINT ( 'NONE',  ( 0.000000000000000000, 0.000000000000000000, 4.000000000000000000 ) ) ;
#139 = AXIS2_PLACEMENT_3D ( 'NONE', #42, #147, #43 ) ;
#140 =( NAMED_UNIT ( * ) PLANE_ANGLE_UNIT ( ) SI_UNIT ( $, .RADIAN. ) );
#141 = ORIENTED_EDGE ( 'NONE', *, *, #134, .T. ) ;
#142 = DIRECTION ( 'NONE',  ( 1.000000000000000000, 0.000000000000000000, 0.000000000000000000 ) ) ;
#143 = EDGE_LOOP ( 'NONE', ( #82, #218, #240, #68 ) ) ;
#144 = VERTEX_POINT ( 'NONE', #130 ) ;
#145 = ORIENTED_EDGE ( 'NONE', *, *, #39, .T. ) ;
#146 = ADVANCED_FACE ( 'NONE', ( #108, #62 ), #227, .T. ) ;
#147 = DIRECTION ( 'NONE',  ( 0.000000000000000000, -0.000000000000000000, -1.000000000000000000 ) ) ;
#148 = VECTOR ( 'NONE', #137, 39.37007874015748143 ) ;
#149 = APPLICATION_CONTEXT ( 'automotive_design' ) ;
#150 = CARTESIAN_POINT ( 'NONE',  ( -0.6520000000000000240, 0.000000000000000000, 3.500000000000000000 ) ) ;
#151 = CARTESIAN_POINT ( 'NONE',  ( 0.000000000000000000, 0.000000000000000000, 0.000000000000000000 ) ) ;
#152 = DIRECTION ( 'NONE',  ( -0.000000000000000000, -0.000000000000000000, -1.000000000000000000 ) ) ;
#153 = CLOSED_SHELL ( 'NONE', ( #88, #97, #80, #233, #96, #146, #179, #170, #196 ) ) ;
#154 = DIRECTION ( 'NONE',  ( -0.000000000000000000, -0.000000000000000000, -1.000000000000000000 ) ) ;
#155 = VERTEX_POINT ( 'NONE', #267 ) ;
#156 = CARTESIAN_POINT ( 'NONE',  ( 0.6220472440944883052, 7.617881663987473502E-17, 3.500000000000000000 ) ) ;
#157 = SURFACE_STYLE_FILL_AREA ( #74 ) ;
#158 =( GEOMETRIC_REPRESENTATION_CONTEXT ( 3 ) GLOBAL_UNCERTAINTY_ASSIGNED_CONTEXT ( ( #223 ) ) GLOBAL_UNIT_ASSIGNED_CONTEXT ( ( #33, #140, #120 ) ) REPRESENTATION_CONTEXT ( 'NONE', 'WORKASPACE' ) );
#159 = AXIS2_PLACEMENT_3D ( 'NONE', #138, #8, #25 ) ;
#160 = LINE ( 'NONE', #156, #148 ) ;
#161 = PRODUCT_DEFINITION_FORMATION_WITH_SPECIFIED_SOURCE ( 'ANY', '', #70, .NOT_KNOWN. ) ;
#162 = PRODUCT_RELATED_PRODUCT_CATEGORY ( 'part', '', ( #70 ) ) ;
#163 = DIRECTION ( 'NONE',  ( -0.000000000000000000, 0.000000000000000000, 1.000000000000000000 ) ) ;
#164 = SURFACE_SIDE_STYLE ('',( #157 ) ) ;
#165 = CIRCLE ( 'NONE', #77, 0.6875000000000000000 ) ;
#166 = ORIENTED_EDGE ( 'NONE', *, *, #284, .T. ) ;
#167 = VERTEX_POINT ( 'NONE', #150 ) ;
#168 = ORIENTED_EDGE ( 'NONE', *, *, #221, .T. ) ;
#169 = ORIENTED_EDGE ( 'NONE', *, *, #187, .T. ) ;
#170 = ADVANCED_FACE ( 'NONE', ( #86 ), #250, .T. ) ;
#171 = CARTESIAN_POINT ( 'NONE',  ( -0.6875000000000000000, 0.000000000000000000, 3.500000000000000000 ) ) ;
#172 = CARTESIAN_POINT ( 'NONE',  ( 0.000000000000000000, 0.000000000000000000, 0.000000000000000000 ) ) ;
#173 = CARTESIAN_POINT ( 'NONE',  ( 0.000000000000000000, 0.000000000000000000, 4.000000000000000000 ) ) ;
#174 = ADVANCED_BREP_SHAPE_REPRESENTATION ( 'MS0034', ( #230, #205 ), #158 ) ;
#175 = DIRECTION ( 'NONE',  ( -0.000000000000000000, -0.000000000000000000, -1.000000000000000000 ) ) ;
#176 = CARTESIAN_POINT ( 'NONE',  ( 0.6220472440944883052, 7.617881663987473502E-17, 0.000000000000000000 ) ) ;
#177 = MECHANICAL_DESIGN_GEOMETRIC_PRESENTATION_REPRESENTATION (  '', ( #16 ), #102 ) ;
#178 = AXIS2_PLACEMENT_3D ( 'NONE', #173, #225, #105 ) ;
#179 = ADVANCED_FACE ( 'NONE', ( #244, #246 ), #22, .F. ) ;
#180 = DIRECTION ( 'NONE',  ( -0.000000000000000000, 0.000000000000000000, 1.000000000000000000 ) ) ;
#181 = UNCERTAINTY_MEASURE_WITH_UNIT (LENGTH_MEASURE( 1.000000000000000082E-05 ), #50, 'distance_accuracy_value', 'NONE');
#182 =( NAMED_UNIT ( * ) PLANE_ANGLE_UNIT ( ) SI_UNIT ( $, .RADIAN. ) );
#183 = DIRECTION ( 'NONE',  ( 1.000000000000000000, 0.000000000000000000, 0.000000000000000000 ) ) ;
#184 = CARTESIAN_POINT ( 'NONE',  ( 0.000000000000000000, 0.000000000000000000, 3.500000000000000000 ) ) ;
#185 = APPLICATION_PROTOCOL_DEFINITION ( 'draft international standard', 'automotive_design', 1998, #209 ) ;
#186 = ORIENTED_EDGE ( 'NONE', *, *, #226, .T. ) ;
#187 = EDGE_CURVE ( 'NONE', #155, #217, #200, .T. ) ;
#188 = ORIENTED_EDGE ( 'NONE', *, *, #49, .T. ) ;
#189 = PRODUCT_DEFINITION ( 'UNKNOWN', '', #161, #199 ) ;
#190 = ORIENTED_EDGE ( 'NONE', *, *, #215, .F. ) ;
#191 = EDGE_CURVE ( 'NONE', #57, #217, #30, .T. ) ;
#192 = ORIENTED_EDGE ( 'NONE', *, *, #226, .F. ) ;
#193 = EDGE_LOOP ( 'NONE', ( #83, #216 ) ) ;
#194 = CARTESIAN_POINT ( 'NONE',  ( 0.000000000000000000, 0.000000000000000000, 3.500000000000000000 ) ) ;
#195 = FACE_OUTER_BOUND ( 'NONE', #40, .T. ) ;
#196 = ADVANCED_FACE ( 'NONE', ( #231, #206 ), #52, .T. ) ;
#197 = VECTOR ( 'NONE', #3, 39.37007874015748143 ) ;
#198 = DIRECTION ( 'NONE',  ( 1.000000000000000000, 0.000000000000000000, 0.000000000000000000 ) ) ;
#199 = PRODUCT_DEFINITION_CONTEXT ( 'detailed design', #209, 'design' ) ;
#200 = LINE ( 'NONE', #4, #89 ) ;
#201 = CARTESIAN_POINT ( 'NONE',  ( 0.6520000000000000240, 7.984697130440742487E-17, 4.000000000000000000 ) ) ;
#202 = EDGE_CURVE ( 'NONE', #7, #155, #6, .T. ) ;
#203 = COLOUR_RGB ( '',0.7921568627450980005, 0.8196078431372548767, 0.9333333333333333481 ) ;
#204 = ORIENTED_EDGE ( 'NONE', *, *, #59, .F. ) ;
#205 = AXIS2_PLACEMENT_3D ( 'NONE', #123, #212, #236 ) ;
#206 = FACE_OUTER_BOUND ( 'NONE', #122, .T. ) ;
#207 = DIRECTION ( 'NONE',  ( -0.000000000000000000, -0.000000000000000000, -1.000000000000000000 ) ) ;
#208 = DIRECTION ( 'NONE',  ( -0.000000000000000000, 0.000000000000000000, 1.000000000000000000 ) ) ;
#209 = APPLICATION_CONTEXT ( 'automotive_design' ) ;
#210 = AXIS2_PLACEMENT_3D ( 'NONE', #116, #208, #95 ) ;
#211 =( LENGTH_UNIT ( ) NAMED_UNIT ( * ) SI_UNIT ( $, .METRE. ) );
#212 = DIRECTION ( 'NONE',  ( 0.000000000000000000, 0.000000000000000000, 1.000000000000000000 ) ) ;
#213 = ORIENTED_EDGE ( 'NONE', *, *, #202, .T. ) ;
#214 = DIRECTION ( 'NONE',  ( -0.000000000000000000, 0.000000000000000000, 1.000000000000000000 ) ) ;
#215 = EDGE_CURVE ( 'NONE', #91, #99, #243, .T. ) ;
#216 = ORIENTED_EDGE ( 'NONE', *, *, #254, .F. ) ;
#217 = VERTEX_POINT ( 'NONE', #269 ) ;
#218 = ORIENTED_EDGE ( 'NONE', *, *, #39, .F. ) ;
#219 = VECTOR ( 'NONE', #154, 39.37007874015748143 ) ;
#220 = CARTESIAN_POINT ( 'NONE',  ( 0.6220472440944883052, 7.617881663987473502E-17, 4.000000000000000000 ) ) ;
#221 = EDGE_CURVE ( 'NONE', #99, #91, #114, .T. ) ;
#222 = CARTESIAN_POINT ( 'NONE',  ( 0.000000000000000000, 0.000000000000000000, 3.500000000000000000 ) ) ;
#223 = UNCERTAINTY_MEASURE_WITH_UNIT (LENGTH_MEASURE( 1.000000000000000082E-05 ), #33, 'distance_accuracy_value', 'NONE');
#224 = CARTESIAN_POINT ( 'NONE',  ( 0.000000000000000000, 0.000000000000000000, 3.500000000000000000 ) ) ;
#225 = DIRECTION ( 'NONE',  ( -0.000000000000000000, -0.000000000000000000, -1.000000000000000000 ) ) ;
#226 = EDGE_CURVE ( 'NONE', #99, #100, #160, .T. ) ;
#227 = PLANE ( 'NONE',  #268 ) ;
#228 = ORIENTED_EDGE ( 'NONE', *, *, #249, .T. ) ;
#229 = SURFACE_STYLE_USAGE ( .BOTH. , #164 ) ;
#230 = MANIFOLD_SOLID_BREP ( 'Boss-Extrude2', #153 ) ;
#231 = FACE_BOUND ( 'NONE', #81, .T. ) ;
#232 = PRESENTATION_STYLE_ASSIGNMENT (( #229 ) ) ;
#233 = ADVANCED_FACE ( 'NONE', ( #10 ), #94, .T. ) ;
#234 = DIRECTION ( 'NONE',  ( -0.000000000000000000, 0.000000000000000000, 1.000000000000000000 ) ) ;
#235 = CARTESIAN_POINT ( 'NONE',  ( -0.6220472440944883052, 0.000000000000000000, 0.000000000000000000 ) ) ;
#236 = DIRECTION ( 'NONE',  ( 1.000000000000000000, 0.000000000000000000, 0.000000000000000000 ) ) ;
#237 = CIRCLE ( 'NONE', #55, 0.6520000000000000240 ) ;
#238 = EDGE_LOOP ( 'NONE', ( #18, #169, #61, #132 ) ) ;
#239 = ORIENTED_EDGE ( 'NONE', *, *, #109, .F. ) ;
#240 = ORIENTED_EDGE ( 'NONE', *, *, #109, .T. ) ;
#241 = CIRCLE ( 'NONE', #26, 0.6875000000000000000 ) ;
#242 = DIRECTION ( 'NONE',  ( -1.000000000000000000, 0.000000000000000000, 0.000000000000000000 ) ) ;
#243 = CIRCLE ( 'NONE', #159, 0.6220472440944883052 ) ;
#244 = FACE_OUTER_BOUND ( 'NONE', #193, .T. ) ;
#245 = DIRECTION ( 'NONE',  ( -0.000000000000000000, 0.000000000000000000, 1.000000000000000000 ) ) ;
#246 = FACE_BOUND ( 'NONE', #113, .T. ) ;
#247 = AXIS2_PLACEMENT_3D ( 'NONE', #184, #9, #183 ) ;
#248 = AXIS2_PLACEMENT_3D ( 'NONE', #266, #152, #131 ) ;
#249 = EDGE_CURVE ( 'NONE', #7, #57, #115, .T. ) ;
#250 = CYLINDRICAL_SURFACE ( 'NONE', #248, 0.6520000000000000240 ) ;
#251 = ORIENTED_EDGE ( 'NONE', *, *, #221, .F. ) ;
#252 = CARTESIAN_POINT ( 'NONE',  ( 0.000000000000000000, 0.000000000000000000, 3.500000000000000000 ) ) ;
#253 = DIRECTION ( 'NONE',  ( 1.000000000000000000, 0.000000000000000000, 0.000000000000000000 ) ) ;
#254 = EDGE_CURVE ( 'NONE', #217, #57, #241, .T. ) ;
#255 = CARTESIAN_POINT ( 'NONE',  ( -0.6875000000000000000, 0.000000000000000000, 3.500000000000000000 ) ) ;
#256 = APPLICATION_PROTOCOL_DEFINITION ( 'draft international standard', 'automotive_design', 1998, #149 ) ;
#257 = CARTESIAN_POINT ( 'NONE',  ( 0.000000000000000000, 0.000000000000000000, 4.000000000000000000 ) ) ;
#258 = ORIENTED_EDGE ( 'NONE', *, *, #11, .T. ) ;
#259 = CIRCLE ( 'NONE', #1, 0.6220472440944883052 ) ;
#260 = ORIENTED_EDGE ( 'NONE', *, *, #215, .T. ) ;
#261 = DIMENSIONAL_EXPONENTS ( 1.000000000000000000, 0.000000000000000000, 0.000000000000000000, 0.000000000000000000, 0.000000000000000000, 0.000000000000000000, 0.000000000000000000 ) ;
#262 = ORIENTED_EDGE ( 'NONE', *, *, #67, .F. ) ;
#263 = LINE ( 'NONE', #110, #219 ) ;
#264 = FACE_OUTER_BOUND ( 'NONE', #101, .T. ) ;
#265 = CARTESIAN_POINT ( 'NONE',  ( -0.6220472440944883052, 0.000000000000000000, 4.000000000000000000 ) ) ;
#266 = CARTESIAN_POINT ( 'NONE',  ( 0.000000000000000000, 0.000000000000000000, 4.000000000000000000 ) ) ;
#267 = CARTESIAN_POINT ( 'NONE',  ( 0.6875000000000000000, 8.419446744138052529E-17, 3.500000000000000000 ) ) ;
#268 = AXIS2_PLACEMENT_3D ( 'NONE', #194, #66, #198 ) ;
#269 = CARTESIAN_POINT ( 'NONE',  ( 0.6875000000000000000, 8.419446744138052529E-17, 0.000000000000000000 ) ) ;
#270 = DIRECTION ( 'NONE',  ( -0.000000000000000000, -0.000000000000000000, -1.000000000000000000 ) ) ;
#271 = AXIS2_PLACEMENT_3D ( 'NONE', #222, #175, #85 ) ;
#272 = CARTESIAN_POINT ( 'NONE',  ( 0.000000000000000000, 0.000000000000000000, 4.000000000000000000 ) ) ;
#273 = CARTESIAN_POINT ( 'NONE',  ( 0.000000000000000000, 0.000000000000000000, 0.000000000000000000 ) ) ;
#274 = EDGE_CURVE ( 'NONE', #24, #100, #276, .T. ) ;
#275 =( LENGTH_UNIT ( ) NAMED_UNIT ( * ) SI_UNIT ( $, .METRE. ) );
#276 = CIRCLE ( 'NONE', #210, 0.6220472440944883052 ) ;
#277 = AXIS2_PLACEMENT_3D ( 'NONE', #272, #163, #71 ) ;
#278 = EDGE_LOOP ( 'NONE', ( #213, #279 ) ) ;
#279 = ORIENTED_EDGE ( 'NONE', *, *, #34, .T. ) ;
#280 = EDGE_LOOP ( 'NONE', ( #121, #79, #228, #283 ) ) ;
#281 = AXIS2_PLACEMENT_3D ( 'NONE', #151, #245, #23 ) ;
#282 = ORIENTED_EDGE ( 'NONE', *, *, #134, .F. ) ;
#283 = ORIENTED_EDGE ( 'NONE', *, *, #191, .T. ) ;
#284 = EDGE_CURVE ( 'NONE', #144, #167, #45, .T. ) ;
#285 = CYLINDRICAL_SURFACE ( 'NONE', #103, 0.6220472440944883052 ) ;
ENDSEC;
END-ISO-10303-21;
