ISO-10303-21;
HEADER;
FILE_DESCRIPTION (( 'STEP AP214' ),
    '1' );
FILE_NAME ('MS0010.STEP',
    '2025-05-08T16:23:49',
    ( '' ),
    ( '' ),
    'SwSTEP 2.0',
    'SolidWorks 2023',
    '' );
FILE_SCHEMA (( 'AUTOMOTIVE_DESIGN' ));
ENDSEC;

DATA;
#1 = DIRECTION ( 'NONE',  ( 1.000000000000000000, 0.000000000000000000, 0.000000000000000000 ) ) ;
#2 = AXIS2_PLACEMENT_3D ( 'NONE', #167, #61, #62 ) ;
#3 = EDGE_CURVE ( 'NONE', #227, #31, #146, .T. ) ;
#4 = CARTESIAN_POINT ( 'NONE',  ( -0.6220472440944883052, 0.000000000000000000, 0.000000000000000000 ) ) ;
#5 = CARTESIAN_POINT ( 'NONE',  ( 0.6875000000000000000, 8.419446744138052529E-17, 0.000000000000000000 ) ) ;
#6 = LENGTH_MEASURE_WITH_UNIT ( LENGTH_MEASURE( 0.02539999999999999897 ), #246 );
#7 = EDGE_LOOP ( 'NONE', ( #274, #54, #36, #35 ) ) ;
#8 = DIMENSIONAL_EXPONENTS ( 1.000000000000000000, 0.000000000000000000, 0.000000000000000000, 0.000000000000000000, 0.000000000000000000, 0.000000000000000000, 0.000000000000000000 ) ;
#9 = PRODUCT ( 'MS0010', 'MS0010', '', ( #182 ) ) ;
#10 = ORIENTED_EDGE ( 'NONE', *, *, #130, .F. ) ;
#11 = EDGE_CURVE ( 'NONE', #13, #221, #271, .T. ) ;
#12 = AXIS2_PLACEMENT_3D ( 'NONE', #190, #119, #59 ) ;
#13 = VERTEX_POINT ( 'NONE', #18 ) ;
#14 = ORIENTED_EDGE ( 'NONE', *, *, #265, .F. ) ;
#15 = FACE_OUTER_BOUND ( 'NONE', #200, .T. ) ;
#16 = SURFACE_SIDE_STYLE ('',( #284 ) ) ;
#17 = VECTOR ( 'NONE', #237, 39.37007874015748143 ) ;
#18 = CARTESIAN_POINT ( 'NONE',  ( 0.6875000000000000000, 8.419446744138052529E-17, 1.875000000000000000 ) ) ;
#19 = DIRECTION ( 'NONE',  ( 0.000000000000000000, -0.000000000000000000, -1.000000000000000000 ) ) ;
#20 = FILL_AREA_STYLE ('',( #255 ) ) ;
#21 = AXIS2_PLACEMENT_3D ( 'NONE', #69, #241, #243 ) ;
#22 = LINE ( 'NONE', #65, #91 ) ;
#23 = DIRECTION ( 'NONE',  ( -0.000000000000000000, -0.000000000000000000, -1.000000000000000000 ) ) ;
#24 = EDGE_CURVE ( 'NONE', #221, #13, #133, .T. ) ;
#25 = DIRECTION ( 'NONE',  ( 0.000000000000000000, -0.000000000000000000, -1.000000000000000000 ) ) ;
#26 = APPLICATION_CONTEXT ( 'automotive_design' ) ;
#27 = CIRCLE ( 'NONE', #208, 0.6520000000000000240 ) ;
#28 = DIRECTION ( 'NONE',  ( -0.000000000000000000, 0.000000000000000000, 1.000000000000000000 ) ) ;
#29 = CARTESIAN_POINT ( 'NONE',  ( 0.000000000000000000, 0.000000000000000000, 1.875000000000000000 ) ) ;
#30 = APPLICATION_PROTOCOL_DEFINITION ( 'draft international standard', 'automotive_design', 1998, #40 ) ;
#31 = VERTEX_POINT ( 'NONE', #99 ) ;
#32 = ORIENTED_EDGE ( 'NONE', *, *, #33, .F. ) ;
#33 = EDGE_CURVE ( 'NONE', #13, #188, #37, .T. ) ;
#34 = DIRECTION ( 'NONE',  ( 1.000000000000000000, 0.000000000000000000, 0.000000000000000000 ) ) ;
#35 = ORIENTED_EDGE ( 'NONE', *, *, #157, .F. ) ;
#36 = ORIENTED_EDGE ( 'NONE', *, *, #3, .T. ) ;
#37 = LINE ( 'NONE', #41, #147 ) ;
#38 = FACE_BOUND ( 'NONE', #273, .T. ) ;
#39 = CIRCLE ( 'NONE', #117, 0.6220472440944883052 ) ;
#40 = APPLICATION_CONTEXT ( 'automotive_design' ) ;
#41 = CARTESIAN_POINT ( 'NONE',  ( 0.6875000000000000000, 8.419446744138052529E-17, 1.875000000000000000 ) ) ;
#42 = CARTESIAN_POINT ( 'NONE',  ( -0.6520000000000000240, 0.000000000000000000, 2.375000000000000000 ) ) ;
#43 = DIRECTION ( 'NONE',  ( 1.000000000000000000, 0.000000000000000000, 0.000000000000000000 ) ) ;
#44 = AXIS2_PLACEMENT_3D ( 'NONE', #234, #149, #275 ) ;
#45 = FACE_BOUND ( 'NONE', #58, .T. ) ;
#46 = PRODUCT_DEFINITION_CONTEXT ( 'detailed design', #40, 'design' ) ;
#47 = DIRECTION ( 'NONE',  ( -0.000000000000000000, -0.000000000000000000, -1.000000000000000000 ) ) ;
#48 = FACE_BOUND ( 'NONE', #95, .T. ) ;
#49 = FACE_OUTER_BOUND ( 'NONE', #189, .T. ) ;
#50 = ORIENTED_EDGE ( 'NONE', *, *, #79, .T. ) ;
#51 = CYLINDRICAL_SURFACE ( 'NONE', #272, 0.6220472440944883052 ) ;
#52 = ORIENTED_EDGE ( 'NONE', *, *, #154, .F. ) ;
#53 = COLOUR_RGB ( '',0.7921568627450980005, 0.8196078431372548767, 0.9333333333333333481 ) ;
#54 = ORIENTED_EDGE ( 'NONE', *, *, #101, .F. ) ;
#55 = EDGE_CURVE ( 'NONE', #139, #98, #191, .T. ) ;
#56 = SHAPE_DEFINITION_REPRESENTATION ( #226, #215 ) ;
#57 = ORIENTED_EDGE ( 'NONE', *, *, #165, .T. ) ;
#58 = EDGE_LOOP ( 'NONE', ( #247, #116 ) ) ;
#59 = DIRECTION ( 'NONE',  ( 1.000000000000000000, 0.000000000000000000, 0.000000000000000000 ) ) ;
#60 = SURFACE_STYLE_USAGE ( .BOTH. , #16 ) ;
#61 = DIRECTION ( 'NONE',  ( -0.000000000000000000, 0.000000000000000000, 1.000000000000000000 ) ) ;
#62 = DIRECTION ( 'NONE',  ( 1.000000000000000000, 0.000000000000000000, 0.000000000000000000 ) ) ;
#63 = EDGE_CURVE ( 'NONE', #98, #158, #194, .T. ) ;
#64 = DIRECTION ( 'NONE',  ( -0.000000000000000000, 0.000000000000000000, 1.000000000000000000 ) ) ;
#65 = CARTESIAN_POINT ( 'NONE',  ( -0.6875000000000000000, 0.000000000000000000, 1.875000000000000000 ) ) ;
#66 = DIRECTION ( 'NONE',  ( -0.000000000000000000, 0.000000000000000000, 1.000000000000000000 ) ) ;
#67 = CLOSED_SHELL ( 'NONE', ( #71, #120, #210, #235, #278, #225, #256, #84, #96 ) ) ;
#68 = FACE_OUTER_BOUND ( 'NONE', #166, .T. ) ;
#69 = CARTESIAN_POINT ( 'NONE',  ( 0.000000000000000000, 0.000000000000000000, 0.000000000000000000 ) ) ;
#70 = ORIENTED_EDGE ( 'NONE', *, *, #63, .F. ) ;
#71 = ADVANCED_FACE ( 'NONE', ( #232 ), #122, .T. ) ;
#72 = EDGE_LOOP ( 'NONE', ( #250, #160, #269, #52 ) ) ;
#73 = EDGE_LOOP ( 'NONE', ( #202, #268, #110, #203 ) ) ;
#74 = ORIENTED_EDGE ( 'NONE', *, *, #157, .T. ) ;
#75 = EDGE_LOOP ( 'NONE', ( #136, #57 ) ) ;
#76 = AXIS2_PLACEMENT_3D ( 'NONE', #93, #115, #229 ) ;
#77 = CYLINDRICAL_SURFACE ( 'NONE', #213, 0.6220472440944883052 ) ;
#78 = CARTESIAN_POINT ( 'NONE',  ( -0.6220472440944883052, 0.000000000000000000, 1.875000000000000000 ) ) ;
#79 = EDGE_CURVE ( 'NONE', #228, #188, #172, .T. ) ;
#80 = DIRECTION ( 'NONE',  ( -0.000000000000000000, 0.000000000000000000, 1.000000000000000000 ) ) ;
#81 = DIRECTION ( 'NONE',  ( 1.000000000000000000, 0.000000000000000000, 0.000000000000000000 ) ) ;
#82 = CIRCLE ( 'NONE', #137, 0.6875000000000000000 ) ;
#83 = CYLINDRICAL_SURFACE ( 'NONE', #105, 0.6875000000000000000 ) ;
#84 = ADVANCED_FACE ( 'NONE', ( #258 ), #104, .T. ) ;
#85 = DIRECTION ( 'NONE',  ( 1.000000000000000000, 0.000000000000000000, 0.000000000000000000 ) ) ;
#86 =( NAMED_UNIT ( * ) PLANE_ANGLE_UNIT ( ) SI_UNIT ( $, .RADIAN. ) );
#87 = CIRCLE ( 'NONE', #248, 0.6520000000000000240 ) ;
#88 = DIRECTION ( 'NONE',  ( -0.000000000000000000, 0.000000000000000000, 1.000000000000000000 ) ) ;
#89 =( CONVERSION_BASED_UNIT ( 'INCH', #214 ) LENGTH_UNIT ( ) NAMED_UNIT ( #179 ) );
#90 =( NAMED_UNIT ( * ) SI_UNIT ( $, .STERADIAN. ) SOLID_ANGLE_UNIT ( ) );
#91 = VECTOR ( 'NONE', #263, 39.37007874015748143 ) ;
#92 = ORIENTED_EDGE ( 'NONE', *, *, #11, .T. ) ;
#93 = CARTESIAN_POINT ( 'NONE',  ( 0.000000000000000000, 0.000000000000000000, 2.375000000000000000 ) ) ;
#94 = VERTEX_POINT ( 'NONE', #281 ) ;
#95 = EDGE_LOOP ( 'NONE', ( #97, #74 ) ) ;
#96 = ADVANCED_FACE ( 'NONE', ( #38, #173 ), #206, .T. ) ;
#97 = ORIENTED_EDGE ( 'NONE', *, *, #128, .T. ) ;
#98 = VERTEX_POINT ( 'NONE', #171 ) ;
#99 = CARTESIAN_POINT ( 'NONE',  ( -0.6520000000000000240, 0.000000000000000000, 1.875000000000000000 ) ) ;
#100 = DIRECTION ( 'NONE',  ( -0.000000000000000000, -0.000000000000000000, -1.000000000000000000 ) ) ;
#101 = EDGE_CURVE ( 'NONE', #227, #94, #276, .T. ) ;
#102 = DIRECTION ( 'NONE',  ( -0.000000000000000000, 0.000000000000000000, 1.000000000000000000 ) ) ;
#103 = DIRECTION ( 'NONE',  ( -1.000000000000000000, 0.000000000000000000, 0.000000000000000000 ) ) ;
#104 = CYLINDRICAL_SURFACE ( 'NONE', #44, 0.6520000000000000240 ) ;
#105 = AXIS2_PLACEMENT_3D ( 'NONE', #29, #196, #285 ) ;
#106 = CARTESIAN_POINT ( 'NONE',  ( 0.000000000000000000, 0.000000000000000000, 0.000000000000000000 ) ) ;
#107 = PLANE ( 'NONE',  #152 ) ;
#108 = CARTESIAN_POINT ( 'NONE',  ( 0.6520000000000000240, 7.984697130440741254E-17, 1.875000000000000000 ) ) ;
#109 = DIRECTION ( 'NONE',  ( 1.000000000000000000, 0.000000000000000000, 0.000000000000000000 ) ) ;
#110 = ORIENTED_EDGE ( 'NONE', *, *, #128, .F. ) ;
#111 =( CONVERSION_BASED_UNIT ( 'INCH', #6 ) LENGTH_UNIT ( ) NAMED_UNIT ( #8 ) );
#112 = EDGE_LOOP ( 'NONE', ( #135, #92 ) ) ;
#113 = DIRECTION ( 'NONE',  ( 0.000000000000000000, 0.000000000000000000, 1.000000000000000000 ) ) ;
#114 = ORIENTED_EDGE ( 'NONE', *, *, #55, .T. ) ;
#115 = DIRECTION ( 'NONE',  ( -0.000000000000000000, 0.000000000000000000, 1.000000000000000000 ) ) ;
#116 = ORIENTED_EDGE ( 'NONE', *, *, #201, .T. ) ;
#117 = AXIS2_PLACEMENT_3D ( 'NONE', #219, #66, #177 ) ;
#118 = ORIENTED_EDGE ( 'NONE', *, *, #265, .T. ) ;
#119 = DIRECTION ( 'NONE',  ( -0.000000000000000000, 0.000000000000000000, 1.000000000000000000 ) ) ;
#120 = ADVANCED_FACE ( 'NONE', ( #15 ), #77, .F. ) ;
#121 = CIRCLE ( 'NONE', #244, 0.6520000000000000240 ) ;
#122 = CYLINDRICAL_SURFACE ( 'NONE', #186, 0.6520000000000000240 ) ;
#123 = DIRECTION ( 'NONE',  ( -1.000000000000000000, 0.000000000000000000, 0.000000000000000000 ) ) ;
#124 = DIRECTION ( 'NONE',  ( -0.000000000000000000, -0.000000000000000000, -1.000000000000000000 ) ) ;
#125 =( LENGTH_UNIT ( ) NAMED_UNIT ( * ) SI_UNIT ( $, .METRE. ) );
#126 = AXIS2_PLACEMENT_3D ( 'NONE', #148, #64, #193 ) ;
#127 = CARTESIAN_POINT ( 'NONE',  ( -0.6520000000000000240, 0.000000000000000000, 2.375000000000000000 ) ) ;
#128 = EDGE_CURVE ( 'NONE', #31, #230, #27, .T. ) ;
#129 = CARTESIAN_POINT ( 'NONE',  ( 0.000000000000000000, 0.000000000000000000, 2.375000000000000000 ) ) ;
#130 = EDGE_CURVE ( 'NONE', #139, #140, #207, .T. ) ;
#131 = MANIFOLD_SOLID_BREP ( 'Boss-Extrude2', #67 ) ;
#132 = UNCERTAINTY_MEASURE_WITH_UNIT (LENGTH_MEASURE( 1.000000000000000082E-05 ), #89, 'distance_accuracy_value', 'NONE');
#133 = CIRCLE ( 'NONE', #12, 0.6875000000000000000 ) ;
#134 = CARTESIAN_POINT ( 'NONE',  ( 0.000000000000000000, 0.000000000000000000, 1.875000000000000000 ) ) ;
#135 = ORIENTED_EDGE ( 'NONE', *, *, #24, .T. ) ;
#136 = ORIENTED_EDGE ( 'NONE', *, *, #101, .T. ) ;
#137 = AXIS2_PLACEMENT_3D ( 'NONE', #169, #216, #109 ) ;
#138 = PRODUCT_DEFINITION_FORMATION_WITH_SPECIFIED_SOURCE ( 'ANY', '', #9, .NOT_KNOWN. ) ;
#139 = VERTEX_POINT ( 'NONE', #266 ) ;
#140 = VERTEX_POINT ( 'NONE', #199 ) ;
#141 = EDGE_CURVE ( 'NONE', #188, #228, #82, .T. ) ;
#142 = ORIENTED_EDGE ( 'NONE', *, *, #63, .T. ) ;
#143 = AXIS2_PLACEMENT_3D ( 'NONE', #151, #47, #174 ) ;
#144 = DIRECTION ( 'NONE',  ( 1.000000000000000000, 0.000000000000000000, 0.000000000000000000 ) ) ;
#145 = PRESENTATION_STYLE_ASSIGNMENT (( #60 ) ) ;
#146 = LINE ( 'NONE', #42, #17 ) ;
#147 = VECTOR ( 'NONE', #279, 39.37007874015748143 ) ;
#148 = CARTESIAN_POINT ( 'NONE',  ( 0.000000000000000000, 0.000000000000000000, 1.875000000000000000 ) ) ;
#149 = DIRECTION ( 'NONE',  ( -0.000000000000000000, -0.000000000000000000, -1.000000000000000000 ) ) ;
#150 = CARTESIAN_POINT ( 'NONE',  ( 0.000000000000000000, 0.000000000000000000, 1.875000000000000000 ) ) ;
#151 = CARTESIAN_POINT ( 'NONE',  ( 0.000000000000000000, 0.000000000000000000, 1.875000000000000000 ) ) ;
#152 = AXIS2_PLACEMENT_3D ( 'NONE', #134, #28, #85 ) ;
#153 = DIRECTION ( 'NONE',  ( 1.000000000000000000, 0.000000000000000000, 0.000000000000000000 ) ) ;
#154 = EDGE_CURVE ( 'NONE', #221, #228, #22, .T. ) ;
#155 = CARTESIAN_POINT ( 'NONE',  ( -0.6875000000000000000, 0.000000000000000000, 0.000000000000000000 ) ) ;
#156 = CARTESIAN_POINT ( 'NONE',  ( 0.6520000000000000240, 7.984697130440741254E-17, 2.375000000000000000 ) ) ;
#157 = EDGE_CURVE ( 'NONE', #230, #31, #87, .T. ) ;
#158 = VERTEX_POINT ( 'NONE', #4 ) ;
#159 = PRODUCT_DEFINITION ( 'UNKNOWN', '', #138, #46 ) ;
#160 = ORIENTED_EDGE ( 'NONE', *, *, #33, .T. ) ;
#161 = CIRCLE ( 'NONE', #254, 0.6220472440944883052 ) ;
#162 =( GEOMETRIC_REPRESENTATION_CONTEXT ( 3 ) GLOBAL_UNCERTAINTY_ASSIGNED_CONTEXT ( ( #220 ) ) GLOBAL_UNIT_ASSIGNED_CONTEXT ( ( #111, #163, #90 ) ) REPRESENTATION_CONTEXT ( 'NONE', 'WORKASPACE' ) );
#163 =( NAMED_UNIT ( * ) PLANE_ANGLE_UNIT ( ) SI_UNIT ( $, .RADIAN. ) );
#164 = ORIENTED_EDGE ( 'NONE', *, *, #184, .F. ) ;
#165 = EDGE_CURVE ( 'NONE', #94, #227, #121, .T. ) ;
#166 = EDGE_LOOP ( 'NONE', ( #32, #245, #249, #50 ) ) ;
#167 = CARTESIAN_POINT ( 'NONE',  ( 0.000000000000000000, 0.000000000000000000, 2.375000000000000000 ) ) ;
#168 = AXIS2_PLACEMENT_3D ( 'NONE', #192, #280, #144 ) ;
#169 = CARTESIAN_POINT ( 'NONE',  ( 0.000000000000000000, 0.000000000000000000, 0.000000000000000000 ) ) ;
#170 = CARTESIAN_POINT ( 'NONE',  ( 0.000000000000000000, 0.000000000000000000, 2.375000000000000000 ) ) ;
#171 = CARTESIAN_POINT ( 'NONE',  ( -0.6220472440944883052, 0.000000000000000000, 2.375000000000000000 ) ) ;
#172 = CIRCLE ( 'NONE', #261, 0.6875000000000000000 ) ;
#173 = FACE_OUTER_BOUND ( 'NONE', #75, .T. ) ;
#174 = DIRECTION ( 'NONE',  ( -1.000000000000000000, 0.000000000000000000, 0.000000000000000000 ) ) ;
#175 = AXIS2_PLACEMENT_3D ( 'NONE', #209, #80, #257 ) ;
#176 =( NAMED_UNIT ( * ) SI_UNIT ( $, .STERADIAN. ) SOLID_ANGLE_UNIT ( ) );
#177 = DIRECTION ( 'NONE',  ( 1.000000000000000000, 0.000000000000000000, 0.000000000000000000 ) ) ;
#178 = APPLICATION_PROTOCOL_DEFINITION ( 'draft international standard', 'automotive_design', 1998, #26 ) ;
#179 = DIMENSIONAL_EXPONENTS ( 1.000000000000000000, 0.000000000000000000, 0.000000000000000000, 0.000000000000000000, 0.000000000000000000, 0.000000000000000000, 0.000000000000000000 ) ;
#180 = CIRCLE ( 'NONE', #76, 0.6220472440944883052 ) ;
#181 = ORIENTED_EDGE ( 'NONE', *, *, #130, .T. ) ;
#182 = PRODUCT_CONTEXT ( 'NONE', #26, 'mechanical' ) ;
#183 = ORIENTED_EDGE ( 'NONE', *, *, #201, .F. ) ;
#184 = EDGE_CURVE ( 'NONE', #158, #140, #161, .T. ) ;
#185 = ORIENTED_EDGE ( 'NONE', *, *, #79, .F. ) ;
#186 = AXIS2_PLACEMENT_3D ( 'NONE', #170, #124, #103 ) ;
#187 = CARTESIAN_POINT ( 'NONE',  ( 0.000000000000000000, 0.000000000000000000, 0.000000000000000000 ) ) ;
#188 = VERTEX_POINT ( 'NONE', #5 ) ;
#189 = EDGE_LOOP ( 'NONE', ( #10, #114, #142, #183 ) ) ;
#190 = CARTESIAN_POINT ( 'NONE',  ( 0.000000000000000000, 0.000000000000000000, 1.875000000000000000 ) ) ;
#191 = CIRCLE ( 'NONE', #168, 0.6220472440944883052 ) ;
#192 = CARTESIAN_POINT ( 'NONE',  ( 0.000000000000000000, 0.000000000000000000, 2.375000000000000000 ) ) ;
#193 = DIRECTION ( 'NONE',  ( 1.000000000000000000, 0.000000000000000000, 0.000000000000000000 ) ) ;
#194 = LINE ( 'NONE', #78, #277 ) ;
#195 = CARTESIAN_POINT ( 'NONE',  ( 0.6220472440944883052, 7.617881663987473502E-17, 1.875000000000000000 ) ) ;
#196 = DIRECTION ( 'NONE',  ( -0.000000000000000000, -0.000000000000000000, -1.000000000000000000 ) ) ;
#197 = FACE_OUTER_BOUND ( 'NONE', #72, .T. ) ;
#198 = CARTESIAN_POINT ( 'NONE',  ( -0.6875000000000000000, 0.000000000000000000, 1.875000000000000000 ) ) ;
#199 = CARTESIAN_POINT ( 'NONE',  ( 0.6220472440944883052, 7.617881663987473502E-17, 0.000000000000000000 ) ) ;
#200 = EDGE_LOOP ( 'NONE', ( #118, #181, #164, #70 ) ) ;
#201 = EDGE_CURVE ( 'NONE', #140, #158, #39, .T. ) ;
#202 = ORIENTED_EDGE ( 'NONE', *, *, #165, .F. ) ;
#203 = ORIENTED_EDGE ( 'NONE', *, *, #3, .F. ) ;
#204 =( GEOMETRIC_REPRESENTATION_CONTEXT ( 3 ) GLOBAL_UNCERTAINTY_ASSIGNED_CONTEXT ( ( #132 ) ) GLOBAL_UNIT_ASSIGNED_CONTEXT ( ( #89, #86, #176 ) ) REPRESENTATION_CONTEXT ( 'NONE', 'WORKASPACE' ) );
#205 = EDGE_LOOP ( 'NONE', ( #185, #224 ) ) ;
#206 = PLANE ( 'NONE',  #175 ) ;
#207 = LINE ( 'NONE', #195, #218 ) ;
#208 = AXIS2_PLACEMENT_3D ( 'NONE', #211, #19, #259 ) ;
#209 = CARTESIAN_POINT ( 'NONE',  ( 0.000000000000000000, 0.000000000000000000, 2.375000000000000000 ) ) ;
#210 = ADVANCED_FACE ( 'NONE', ( #197 ), #83, .T. ) ;
#211 = CARTESIAN_POINT ( 'NONE',  ( 0.000000000000000000, 0.000000000000000000, 1.875000000000000000 ) ) ;
#212 = DIRECTION ( 'NONE',  ( -0.000000000000000000, -0.000000000000000000, -1.000000000000000000 ) ) ;
#213 = AXIS2_PLACEMENT_3D ( 'NONE', #236, #233, #123 ) ;
#214 = LENGTH_MEASURE_WITH_UNIT ( LENGTH_MEASURE( 0.02539999999999999897 ), #125 );
#215 = ADVANCED_BREP_SHAPE_REPRESENTATION ( 'MS0010', ( #131, #262 ), #162 ) ;
#216 = DIRECTION ( 'NONE',  ( -0.000000000000000000, 0.000000000000000000, 1.000000000000000000 ) ) ;
#217 = LINE ( 'NONE', #156, #267 ) ;
#218 = VECTOR ( 'NONE', #212, 39.37007874015748143 ) ;
#219 = CARTESIAN_POINT ( 'NONE',  ( 0.000000000000000000, 0.000000000000000000, 0.000000000000000000 ) ) ;
#220 = UNCERTAINTY_MEASURE_WITH_UNIT (LENGTH_MEASURE( 1.000000000000000082E-05 ), #111, 'distance_accuracy_value', 'NONE');
#221 = VERTEX_POINT ( 'NONE', #198 ) ;
#222 = CARTESIAN_POINT ( 'NONE',  ( 0.000000000000000000, 0.000000000000000000, 1.875000000000000000 ) ) ;
#223 = STYLED_ITEM ( 'NONE', ( #145 ), #131 ) ;
#224 = ORIENTED_EDGE ( 'NONE', *, *, #141, .F. ) ;
#225 = ADVANCED_FACE ( 'NONE', ( #48, #240 ), #107, .T. ) ;
#226 = PRODUCT_DEFINITION_SHAPE ( 'NONE', 'NONE',  #159 ) ;
#227 = VERTEX_POINT ( 'NONE', #127 ) ;
#228 = VERTEX_POINT ( 'NONE', #155 ) ;
#229 = DIRECTION ( 'NONE',  ( 1.000000000000000000, 0.000000000000000000, 0.000000000000000000 ) ) ;
#230 = VERTEX_POINT ( 'NONE', #108 ) ;
#231 = PRESENTATION_LAYER_ASSIGNMENT (  '', '', ( #223 ) ) ;
#232 = FACE_OUTER_BOUND ( 'NONE', #73, .T. ) ;
#233 = DIRECTION ( 'NONE',  ( -0.000000000000000000, -0.000000000000000000, -1.000000000000000000 ) ) ;
#234 = CARTESIAN_POINT ( 'NONE',  ( 0.000000000000000000, 0.000000000000000000, 2.375000000000000000 ) ) ;
#235 = ADVANCED_FACE ( 'NONE', ( #68 ), #239, .T. ) ;
#236 = CARTESIAN_POINT ( 'NONE',  ( 0.000000000000000000, 0.000000000000000000, 1.875000000000000000 ) ) ;
#237 = DIRECTION ( 'NONE',  ( -0.000000000000000000, -0.000000000000000000, -1.000000000000000000 ) ) ;
#238 = DIRECTION ( 'NONE',  ( -0.000000000000000000, 0.000000000000000000, 1.000000000000000000 ) ) ;
#239 = CYLINDRICAL_SURFACE ( 'NONE', #143, 0.6875000000000000000 ) ;
#240 = FACE_OUTER_BOUND ( 'NONE', #112, .T. ) ;
#241 = DIRECTION ( 'NONE',  ( -0.000000000000000000, 0.000000000000000000, 1.000000000000000000 ) ) ;
#242 = EDGE_CURVE ( 'NONE', #94, #230, #217, .T. ) ;
#243 = DIRECTION ( 'NONE',  ( 1.000000000000000000, 0.000000000000000000, 0.000000000000000000 ) ) ;
#244 = AXIS2_PLACEMENT_3D ( 'NONE', #129, #88, #43 ) ;
#245 = ORIENTED_EDGE ( 'NONE', *, *, #24, .F. ) ;
#246 =( LENGTH_UNIT ( ) NAMED_UNIT ( * ) SI_UNIT ( $, .METRE. ) );
#247 = ORIENTED_EDGE ( 'NONE', *, *, #184, .T. ) ;
#248 = AXIS2_PLACEMENT_3D ( 'NONE', #150, #25, #1 ) ;
#249 = ORIENTED_EDGE ( 'NONE', *, *, #154, .T. ) ;
#250 = ORIENTED_EDGE ( 'NONE', *, *, #11, .F. ) ;
#251 = DIRECTION ( 'NONE',  ( -1.000000000000000000, 0.000000000000000000, 0.000000000000000000 ) ) ;
#252 = ORIENTED_EDGE ( 'NONE', *, *, #55, .F. ) ;
#253 = CARTESIAN_POINT ( 'NONE',  ( 0.000000000000000000, 0.000000000000000000, 0.000000000000000000 ) ) ;
#254 = AXIS2_PLACEMENT_3D ( 'NONE', #106, #238, #153 ) ;
#255 = FILL_AREA_STYLE_COLOUR ( '', #53 ) ;
#256 = ADVANCED_FACE ( 'NONE', ( #260, #45 ), #264, .F. ) ;
#257 = DIRECTION ( 'NONE',  ( 1.000000000000000000, 0.000000000000000000, 0.000000000000000000 ) ) ;
#258 = FACE_OUTER_BOUND ( 'NONE', #7, .T. ) ;
#259 = DIRECTION ( 'NONE',  ( 1.000000000000000000, 0.000000000000000000, 0.000000000000000000 ) ) ;
#260 = FACE_OUTER_BOUND ( 'NONE', #205, .T. ) ;
#261 = AXIS2_PLACEMENT_3D ( 'NONE', #253, #102, #81 ) ;
#262 = AXIS2_PLACEMENT_3D ( 'NONE', #187, #113, #34 ) ;
#263 = DIRECTION ( 'NONE',  ( -0.000000000000000000, -0.000000000000000000, -1.000000000000000000 ) ) ;
#264 = PLANE ( 'NONE',  #21 ) ;
#265 = EDGE_CURVE ( 'NONE', #98, #139, #180, .T. ) ;
#266 = CARTESIAN_POINT ( 'NONE',  ( 0.6220472440944883052, 7.617881663987473502E-17, 2.375000000000000000 ) ) ;
#267 = VECTOR ( 'NONE', #23, 39.37007874015748143 ) ;
#268 = ORIENTED_EDGE ( 'NONE', *, *, #242, .T. ) ;
#269 = ORIENTED_EDGE ( 'NONE', *, *, #141, .T. ) ;
#270 = DIRECTION ( 'NONE',  ( -0.000000000000000000, -0.000000000000000000, -1.000000000000000000 ) ) ;
#271 = CIRCLE ( 'NONE', #126, 0.6875000000000000000 ) ;
#272 = AXIS2_PLACEMENT_3D ( 'NONE', #222, #270, #251 ) ;
#273 = EDGE_LOOP ( 'NONE', ( #14, #252 ) ) ;
#274 = ORIENTED_EDGE ( 'NONE', *, *, #242, .F. ) ;
#275 = DIRECTION ( 'NONE',  ( -1.000000000000000000, 0.000000000000000000, 0.000000000000000000 ) ) ;
#276 = CIRCLE ( 'NONE', #2, 0.6520000000000000240 ) ;
#277 = VECTOR ( 'NONE', #100, 39.37007874015748143 ) ;
#278 = ADVANCED_FACE ( 'NONE', ( #49 ), #51, .F. ) ;
#279 = DIRECTION ( 'NONE',  ( -0.000000000000000000, -0.000000000000000000, -1.000000000000000000 ) ) ;
#280 = DIRECTION ( 'NONE',  ( -0.000000000000000000, 0.000000000000000000, 1.000000000000000000 ) ) ;
#281 = CARTESIAN_POINT ( 'NONE',  ( 0.6520000000000000240, 7.984697130440741254E-17, 2.375000000000000000 ) ) ;
#282 = PRODUCT_RELATED_PRODUCT_CATEGORY ( 'part', '', ( #9 ) ) ;
#283 = MECHANICAL_DESIGN_GEOMETRIC_PRESENTATION_REPRESENTATION (  '', ( #223 ), #204 ) ;
#284 = SURFACE_STYLE_FILL_AREA ( #20 ) ;
#285 = DIRECTION ( 'NONE',  ( -1.000000000000000000, 0.000000000000000000, 0.000000000000000000 ) ) ;
ENDSEC;
END-ISO-10303-21;
