ISO-10303-21;
HEADER;
FILE_DESCRIPTION (( 'STEP AP203' ),
    '1' );
FILE_NAME ('MS0009.STEP',
    '2025-05-08T16:21:46',
    ( '' ),
    ( '' ),
    'SwSTEP 2.0',
    'SolidWorks 2023',
    '' );
FILE_SCHEMA (( 'CONFIG_CONTROL_DESIGN' ));
ENDSEC;

DATA;
#1 = ADVANCED_FACE ( 'NONE', ( #163 ), #10, .F. ) ;
#2 = VECTOR ( 'NONE', #22, 39.37007874015748143 ) ;
#3 = FACE_BOUND ( 'NONE', #90, .T. ) ;
#4 = APPLICATION_CONTEXT ( 'configuration controlled 3d designs of mechanical parts and assemblies' ) ;
#5 = DIRECTION ( 'NONE',  ( -0.000000000000000000, 0.000000000000000000, 1.000000000000000000 ) ) ;
#6 = PERSON_AND_ORGANIZATION_ROLE ( 'design_owner' ) ;
#7 = ORIENTED_EDGE ( 'NONE', *, *, #308, .T. ) ;
#8 = DIRECTION ( 'NONE',  ( -0.000000000000000000, 0.000000000000000000, 1.000000000000000000 ) ) ;
#9 = PLANE ( 'NONE',  #185 ) ;
#10 = CYLINDRICAL_SURFACE ( 'NONE', #315, 0.6082677165354329896 ) ;
#11 = APPROVAL_ROLE ( '' ) ;
#12 = EDGE_LOOP ( 'NONE', ( #41, #321 ) ) ;
#13 = CIRCLE ( 'NONE', #274, 0.6082677165354329896 ) ;
#14 = APPROVAL ( #331, 'UNSPECIFIED' ) ;
#15 = EDGE_LOOP ( 'NONE', ( #188, #76, #182, #119 ) ) ;
#16 = SECURITY_CLASSIFICATION_LEVEL ( 'unclassified' ) ;
#17 = PLANE ( 'NONE',  #151 ) ;
#18 = CARTESIAN_POINT ( 'NONE',  ( -0.6082677165354329896, 0.000000000000000000, 2.375000000000000000 ) ) ;
#19 = PERSON_AND_ORGANIZATION_ROLE ( 'classification_officer' ) ;
#20 = DIRECTION ( 'NONE',  ( -0.000000000000000000, 0.000000000000000000, 1.000000000000000000 ) ) ;
#21 = EDGE_CURVE ( 'NONE', #292, #112, #245, .T. ) ;
#22 = DIRECTION ( 'NONE',  ( -0.000000000000000000, -0.000000000000000000, -1.000000000000000000 ) ) ;
#23 = DIRECTION ( 'NONE',  ( -0.000000000000000000, -0.000000000000000000, -1.000000000000000000 ) ) ;
#24 = EDGE_CURVE ( 'NONE', #221, #81, #124, .T. ) ;
#25 =( GEOMETRIC_REPRESENTATION_CONTEXT ( 3 ) GLOBAL_UNCERTAINTY_ASSIGNED_CONTEXT ( ( #288 ) ) GLOBAL_UNIT_ASSIGNED_CONTEXT ( ( #187, #222, #314 ) ) REPRESENTATION_CONTEXT ( 'NONE', 'WORKASPACE' ) );
#26 = CARTESIAN_POINT ( 'NONE',  ( -0.6082677165354329896, 0.000000000000000000, 0.000000000000000000 ) ) ;
#27 = ORIENTED_EDGE ( 'NONE', *, *, #192, .T. ) ;
#28 = PERSON_AND_ORGANIZATION ( #312, #230 ) ;
#29 = PERSON_AND_ORGANIZATION ( #312, #230 ) ;
#30 = DIRECTION ( 'NONE',  ( -0.000000000000000000, -0.000000000000000000, -1.000000000000000000 ) ) ;
#31 = AXIS2_PLACEMENT_3D ( 'NONE', #242, #297, #320 ) ;
#32 = FACE_OUTER_BOUND ( 'NONE', #15, .T. ) ;
#33 = ORIENTED_EDGE ( 'NONE', *, *, #120, .T. ) ;
#34 = ADVANCED_FACE ( 'NONE', ( #193 ), #250, .T. ) ;
#35 = EDGE_LOOP ( 'NONE', ( #139, #69, #271, #53 ) ) ;
#36 = ADVANCED_BREP_SHAPE_REPRESENTATION ( 'MS0009', ( #47, #31 ), #25 ) ;
#37 = CARTESIAN_POINT ( 'NONE',  ( 0.000000000000000000, 0.000000000000000000, 1.875000000000000000 ) ) ;
#38 = CIRCLE ( 'NONE', #194, 0.6875000000000000000 ) ;
#39 = CALENDAR_DATE ( 2025, 8, 5 ) ;
#40 = ORIENTED_EDGE ( 'NONE', *, *, #183, .T. ) ;
#41 = ORIENTED_EDGE ( 'NONE', *, *, #168, .F. ) ;
#42 = CARTESIAN_POINT ( 'NONE',  ( -0.6520000000000000240, 0.000000000000000000, 2.375000000000000000 ) ) ;
#43 = VECTOR ( 'NONE', #177, 39.37007874015748143 ) ;
#44 = AXIS2_PLACEMENT_3D ( 'NONE', #104, #130, #209 ) ;
#45 = COORDINATED_UNIVERSAL_TIME_OFFSET ( 8, 0, .BEHIND. ) ;
#46 = LINE ( 'NONE', #50, #2 ) ;
#47 = MANIFOLD_SOLID_BREP ( 'Boss-Extrude2', #131 ) ;
#48 = DIRECTION ( 'NONE',  ( -0.000000000000000000, -0.000000000000000000, -1.000000000000000000 ) ) ;
#49 = ADVANCED_FACE ( 'NONE', ( #196 ), #295, .T. ) ;
#50 = CARTESIAN_POINT ( 'NONE',  ( -0.6875000000000000000, 0.000000000000000000, 1.875000000000000000 ) ) ;
#51 = CIRCLE ( 'NONE', #285, 0.6875000000000000000 ) ;
#52 = DIMENSIONAL_EXPONENTS ( 1.000000000000000000, 0.000000000000000000, 0.000000000000000000, 0.000000000000000000, 0.000000000000000000, 0.000000000000000000, 0.000000000000000000 ) ;
#53 = ORIENTED_EDGE ( 'NONE', *, *, #168, .T. ) ;
#54 = EDGE_LOOP ( 'NONE', ( #301, #246, #84, #243 ) ) ;
#55 = CC_DESIGN_DATE_AND_TIME_ASSIGNMENT ( #291, #59, ( #219 ) ) ;
#56 = DIRECTION ( 'NONE',  ( -0.000000000000000000, -0.000000000000000000, -1.000000000000000000 ) ) ;
#57 = LINE ( 'NONE', #109, #80 ) ;
#58 = VERTEX_POINT ( 'NONE', #63 ) ;
#59 = DATE_TIME_ROLE ( 'creation_date' ) ;
#60 = LOCAL_TIME ( 9, 21, 46.00000000000000000, #191 ) ;
#61 = DIRECTION ( 'NONE',  ( -0.000000000000000000, 0.000000000000000000, 1.000000000000000000 ) ) ;
#62 = CARTESIAN_POINT ( 'NONE',  ( 0.6082677165354329896, 7.449131120797877398E-17, 0.000000000000000000 ) ) ;
#63 = CARTESIAN_POINT ( 'NONE',  ( -0.6520000000000000240, 0.000000000000000000, 2.375000000000000000 ) ) ;
#64 = EDGE_CURVE ( 'NONE', #203, #65, #73, .T. ) ;
#65 = VERTEX_POINT ( 'NONE', #172 ) ;
#66 = CALENDAR_DATE ( 2025, 8, 5 ) ;
#67 = DIRECTION ( 'NONE',  ( 1.000000000000000000, 0.000000000000000000, 0.000000000000000000 ) ) ;
#68 = SECURITY_CLASSIFICATION ( '', '', #16 ) ;
#69 = ORIENTED_EDGE ( 'NONE', *, *, #106, .F. ) ;
#70 = CARTESIAN_POINT ( 'NONE',  ( 0.000000000000000000, 0.000000000000000000, 2.375000000000000000 ) ) ;
#71 = ADVANCED_FACE ( 'NONE', ( #144, #251 ), #17, .F. ) ;
#72 = DIRECTION ( 'NONE',  ( -0.000000000000000000, 0.000000000000000000, 1.000000000000000000 ) ) ;
#73 = CIRCLE ( 'NONE', #108, 0.6875000000000000000 ) ;
#74 = CARTESIAN_POINT ( 'NONE',  ( 0.000000000000000000, 0.000000000000000000, 0.000000000000000000 ) ) ;
#75 = FACE_OUTER_BOUND ( 'NONE', #223, .T. ) ;
#76 = ORIENTED_EDGE ( 'NONE', *, *, #21, .T. ) ;
#77 = CC_DESIGN_DATE_AND_TIME_ASSIGNMENT ( #200, #206, ( #68 ) ) ;
#78 = CARTESIAN_POINT ( 'NONE',  ( -0.6082677165354329896, 0.000000000000000000, 1.875000000000000000 ) ) ;
#79 = CARTESIAN_POINT ( 'NONE',  ( 0.000000000000000000, 0.000000000000000000, 1.875000000000000000 ) ) ;
#80 = VECTOR ( 'NONE', #162, 39.37007874015748143 ) ;
#81 = VERTEX_POINT ( 'NONE', #175 ) ;
#82 = APPROVAL_DATE_TIME ( #164, #263 ) ;
#83 = LENGTH_MEASURE_WITH_UNIT ( LENGTH_MEASURE( 0.02539999999999999897 ), #113 );
#84 = ORIENTED_EDGE ( 'NONE', *, *, #64, .T. ) ;
#85 = AXIS2_PLACEMENT_3D ( 'NONE', #284, #157, #148 ) ;
#86 = CIRCLE ( 'NONE', #44, 0.6520000000000000240 ) ;
#87 = VERTEX_POINT ( 'NONE', #26 ) ;
#88 = APPLICATION_PROTOCOL_DEFINITION ( 'international standard', 'config_control_design', 1994, #4 ) ;
#89 = EDGE_CURVE ( 'NONE', #87, #325, #210, .T. ) ;
#90 = EDGE_LOOP ( 'NONE', ( #27, #161 ) ) ;
#91 = PERSON_AND_ORGANIZATION ( #312, #230 ) ;
#92 = DIRECTION ( 'NONE',  ( -1.000000000000000000, 0.000000000000000000, 0.000000000000000000 ) ) ;
#93 = PERSON_AND_ORGANIZATION ( #312, #230 ) ;
#94 = CC_DESIGN_APPROVAL ( #263, ( #219 ) ) ;
#95 = DIRECTION ( 'NONE',  ( -0.000000000000000000, -0.000000000000000000, -1.000000000000000000 ) ) ;
#96 = CC_DESIGN_PERSON_AND_ORGANIZATION_ASSIGNMENT ( #91, #254, ( #171 ) ) ;
#97 = DIRECTION ( 'NONE',  ( -0.000000000000000000, 0.000000000000000000, 1.000000000000000000 ) ) ;
#98 = DIRECTION ( 'NONE',  ( 1.000000000000000000, 0.000000000000000000, 0.000000000000000000 ) ) ;
#99 = PERSON_AND_ORGANIZATION ( #312, #230 ) ;
#100 = CARTESIAN_POINT ( 'NONE',  ( 0.6520000000000000240, 7.984697130440741254E-17, 2.375000000000000000 ) ) ;
#101 = FACE_OUTER_BOUND ( 'NONE', #211, .T. ) ;
#102 = AXIS2_PLACEMENT_3D ( 'NONE', #149, #258, #236 ) ;
#103 = CC_DESIGN_PERSON_AND_ORGANIZATION_ASSIGNMENT ( #176, #19, ( #68 ) ) ;
#104 = CARTESIAN_POINT ( 'NONE',  ( 0.000000000000000000, 0.000000000000000000, 2.375000000000000000 ) ) ;
#105 = APPLICATION_PROTOCOL_DEFINITION ( 'international standard', 'config_control_design', 1994, #199 ) ;
#106 = EDGE_CURVE ( 'NONE', #81, #221, #51, .T. ) ;
#107 = ORIENTED_EDGE ( 'NONE', *, *, #128, .F. ) ;
#108 = AXIS2_PLACEMENT_3D ( 'NONE', #201, #61, #67 ) ;
#109 = CARTESIAN_POINT ( 'NONE',  ( 0.6082677165354329896, 7.449131120797877398E-17, 1.875000000000000000 ) ) ;
#110 = VERTEX_POINT ( 'NONE', #279 ) ;
#111 = DIRECTION ( 'NONE',  ( 1.000000000000000000, 0.000000000000000000, 0.000000000000000000 ) ) ;
#112 = VERTEX_POINT ( 'NONE', #18 ) ;
#113 =( LENGTH_UNIT ( ) NAMED_UNIT ( * ) SI_UNIT ( $, .METRE. ) );
#114 = ADVANCED_FACE ( 'NONE', ( #307 ), #302, .T. ) ;
#115 = ORIENTED_EDGE ( 'NONE', *, *, #118, .F. ) ;
#116 = ADVANCED_FACE ( 'NONE', ( #75 ), #303, .T. ) ;
#117 = AXIS2_PLACEMENT_3D ( 'NONE', #233, #208, #204 ) ;
#118 = EDGE_CURVE ( 'NONE', #112, #87, #184, .T. ) ;
#119 = ORIENTED_EDGE ( 'NONE', *, *, #308, .F. ) ;
#120 = EDGE_CURVE ( 'NONE', #145, #110, #257, .T. ) ;
#121 = DIRECTION ( 'NONE',  ( -1.000000000000000000, 0.000000000000000000, 0.000000000000000000 ) ) ;
#122 = APPROVAL_ROLE ( '' ) ;
#123 = EDGE_LOOP ( 'NONE', ( #298, #310, #268, #115 ) ) ;
#124 = CIRCLE ( 'NONE', #215, 0.6875000000000000000 ) ;
#125 = LOCAL_TIME ( 9, 21, 46.00000000000000000, #244 ) ;
#126 = CARTESIAN_POINT ( 'NONE',  ( 0.000000000000000000, 0.000000000000000000, 2.375000000000000000 ) ) ;
#127 = FACE_OUTER_BOUND ( 'NONE', #290, .T. ) ;
#128 = EDGE_CURVE ( 'NONE', #145, #58, #238, .T. ) ;
#129 = CARTESIAN_POINT ( 'NONE',  ( 0.000000000000000000, 0.000000000000000000, 0.000000000000000000 ) ) ;
#130 = DIRECTION ( 'NONE',  ( -0.000000000000000000, 0.000000000000000000, 1.000000000000000000 ) ) ;
#131 = CLOSED_SHELL ( 'NONE', ( #114, #1, #34, #49, #306, #277, #71, #116, #269 ) ) ;
#132 = CIRCLE ( 'NONE', #117, 0.6520000000000000240 ) ;
#133 = APPROVAL_PERSON_ORGANIZATION ( #93, #14, #122 ) ;
#134 = DIRECTION ( 'NONE',  ( 1.000000000000000000, 0.000000000000000000, 0.000000000000000000 ) ) ;
#135 = CARTESIAN_POINT ( 'NONE',  ( 0.6875000000000000000, 8.419446744138052529E-17, 1.875000000000000000 ) ) ;
#136 = PERSON_AND_ORGANIZATION_ROLE ( 'creator' ) ;
#137 = AXIS2_PLACEMENT_3D ( 'NONE', #70, #20, #178 ) ;
#138 = CARTESIAN_POINT ( 'NONE',  ( 0.000000000000000000, 0.000000000000000000, 1.875000000000000000 ) ) ;
#139 = ORIENTED_EDGE ( 'NONE', *, *, #329, .F. ) ;
#140 = DIRECTION ( 'NONE',  ( -0.000000000000000000, -0.000000000000000000, -1.000000000000000000 ) ) ;
#141 = CARTESIAN_POINT ( 'NONE',  ( 0.000000000000000000, 0.000000000000000000, 2.375000000000000000 ) ) ;
#142 = DIRECTION ( 'NONE',  ( -0.000000000000000000, 0.000000000000000000, 1.000000000000000000 ) ) ;
#143 = CC_DESIGN_PERSON_AND_ORGANIZATION_ASSIGNMENT ( #28, #6, ( #237 ) ) ;
#144 = FACE_OUTER_BOUND ( 'NONE', #12, .T. ) ;
#145 = VERTEX_POINT ( 'NONE', #100 ) ;
#146 = DIRECTION ( 'NONE',  ( -0.000000000000000000, 0.000000000000000000, 1.000000000000000000 ) ) ;
#147 = COORDINATED_UNIVERSAL_TIME_OFFSET ( 8, 0, .BEHIND. ) ;
#148 = DIRECTION ( 'NONE',  ( 1.000000000000000000, 0.000000000000000000, 0.000000000000000000 ) ) ;
#149 = CARTESIAN_POINT ( 'NONE',  ( 0.000000000000000000, 0.000000000000000000, 2.375000000000000000 ) ) ;
#150 = CARTESIAN_POINT ( 'NONE',  ( 0.000000000000000000, 0.000000000000000000, 2.375000000000000000 ) ) ;
#151 = AXIS2_PLACEMENT_3D ( 'NONE', #212, #97, #332 ) ;
#152 = CIRCLE ( 'NONE', #304, 0.6520000000000000240 ) ;
#153 = APPROVAL ( #170, 'UNSPECIFIED' ) ;
#154 = ORIENTED_EDGE ( 'NONE', *, *, #261, .F. ) ;
#155 = DESIGN_CONTEXT ( 'detailed design', #199, 'design' ) ;
#156 = CC_DESIGN_APPROVAL ( #14, ( #171 ) ) ;
#157 = DIRECTION ( 'NONE',  ( -0.000000000000000000, 0.000000000000000000, 1.000000000000000000 ) ) ;
#158 = CALENDAR_DATE ( 2025, 8, 5 ) ;
#159 = ORIENTED_EDGE ( 'NONE', *, *, #192, .F. ) ;
#160 = CYLINDRICAL_SURFACE ( 'NONE', #235, 0.6082677165354329896 ) ;
#161 = ORIENTED_EDGE ( 'NONE', *, *, #213, .T. ) ;
#162 = DIRECTION ( 'NONE',  ( -0.000000000000000000, -0.000000000000000000, -1.000000000000000000 ) ) ;
#163 = FACE_OUTER_BOUND ( 'NONE', #123, .T. ) ;
#164 = DATE_AND_TIME ( #158, #60 ) ;
#165 = CARTESIAN_POINT ( 'NONE',  ( 0.000000000000000000, 0.000000000000000000, 1.875000000000000000 ) ) ;
#166 = DATE_AND_TIME ( #39, #181 ) ;
#167 = DIRECTION ( 'NONE',  ( -1.000000000000000000, 0.000000000000000000, 0.000000000000000000 ) ) ;
#168 = EDGE_CURVE ( 'NONE', #65, #203, #38, .T. ) ;
#169 = AXIS2_PLACEMENT_3D ( 'NONE', #141, #273, #318 ) ;
#170 = APPROVAL_STATUS ( 'not_yet_approved' ) ;
#171 = PRODUCT_DEFINITION_FORMATION_WITH_SPECIFIED_SOURCE ( 'ANY', '', #237, .NOT_KNOWN. ) ;
#172 = CARTESIAN_POINT ( 'NONE',  ( -0.6875000000000000000, 0.000000000000000000, 0.000000000000000000 ) ) ;
#173 = ORIENTED_EDGE ( 'NONE', *, *, #261, .T. ) ;
#174 = DATE_AND_TIME ( #299, #217 ) ;
#175 = CARTESIAN_POINT ( 'NONE',  ( -0.6875000000000000000, 0.000000000000000000, 1.875000000000000000 ) ) ;
#176 = PERSON_AND_ORGANIZATION ( #312, #230 ) ;
#177 = DIRECTION ( 'NONE',  ( -0.000000000000000000, -0.000000000000000000, -1.000000000000000000 ) ) ;
#178 = DIRECTION ( 'NONE',  ( 1.000000000000000000, 0.000000000000000000, 0.000000000000000000 ) ) ;
#179 = DIRECTION ( 'NONE',  ( -1.000000000000000000, 0.000000000000000000, 0.000000000000000000 ) ) ;
#180 = AXIS2_PLACEMENT_3D ( 'NONE', #150, #205, #179 ) ;
#181 = LOCAL_TIME ( 9, 21, 46.00000000000000000, #275 ) ;
#182 = ORIENTED_EDGE ( 'NONE', *, *, #118, .T. ) ;
#183 = EDGE_CURVE ( 'NONE', #58, #145, #86, .T. ) ;
#184 = LINE ( 'NONE', #78, #294 ) ;
#185 = AXIS2_PLACEMENT_3D ( 'NONE', #138, #8, #111 ) ;
#186 = EDGE_CURVE ( 'NONE', #81, #65, #46, .T. ) ;
#187 =( CONVERSION_BASED_UNIT ( 'INCH', #83 ) LENGTH_UNIT ( ) NAMED_UNIT ( #52 ) );
#188 = ORIENTED_EDGE ( 'NONE', *, *, #280, .F. ) ;
#189 = PRODUCT_DEFINITION_SHAPE ( 'NONE', 'NONE',  #219 ) ;
#190 = CALENDAR_DATE ( 2025, 8, 5 ) ;
#191 = COORDINATED_UNIVERSAL_TIME_OFFSET ( 8, 0, .BEHIND. ) ;
#192 = EDGE_CURVE ( 'NONE', #287, #110, #152, .T. ) ;
#193 = FACE_OUTER_BOUND ( 'NONE', #54, .T. ) ;
#194 = AXIS2_PLACEMENT_3D ( 'NONE', #74, #146, #282 ) ;
#195 = CARTESIAN_POINT ( 'NONE',  ( 0.6082677165354329896, 7.449131120797877398E-17, 2.375000000000000000 ) ) ;
#196 = FACE_OUTER_BOUND ( 'NONE', #35, .T. ) ;
#197 = MECHANICAL_CONTEXT ( 'NONE', #4, 'mechanical' ) ;
#198 = DIRECTION ( 'NONE',  ( -0.000000000000000000, -0.000000000000000000, -1.000000000000000000 ) ) ;
#199 = APPLICATION_CONTEXT ( 'configuration controlled 3d designs of mechanical parts and assemblies' ) ;
#200 = DATE_AND_TIME ( #66, #319 ) ;
#201 = CARTESIAN_POINT ( 'NONE',  ( 0.000000000000000000, 0.000000000000000000, 0.000000000000000000 ) ) ;
#202 = AXIS2_PLACEMENT_3D ( 'NONE', #129, #72, #134 ) ;
#203 = VERTEX_POINT ( 'NONE', #255 ) ;
#204 = DIRECTION ( 'NONE',  ( 1.000000000000000000, 0.000000000000000000, 0.000000000000000000 ) ) ;
#205 = DIRECTION ( 'NONE',  ( -0.000000000000000000, -0.000000000000000000, -1.000000000000000000 ) ) ;
#206 = DATE_TIME_ROLE ( 'classification_date' ) ;
#207 = CC_DESIGN_APPROVAL ( #153, ( #68 ) ) ;
#208 = DIRECTION ( 'NONE',  ( 0.000000000000000000, -0.000000000000000000, -1.000000000000000000 ) ) ;
#209 = DIRECTION ( 'NONE',  ( 1.000000000000000000, 0.000000000000000000, 0.000000000000000000 ) ) ;
#210 = CIRCLE ( 'NONE', #202, 0.6082677165354329896 ) ;
#211 = EDGE_LOOP ( 'NONE', ( #229, #248 ) ) ;
#212 = CARTESIAN_POINT ( 'NONE',  ( 0.000000000000000000, 0.000000000000000000, 0.000000000000000000 ) ) ;
#213 = EDGE_CURVE ( 'NONE', #110, #287, #132, .T. ) ;
#214 = PERSON_AND_ORGANIZATION ( #312, #230 ) ;
#215 = AXIS2_PLACEMENT_3D ( 'NONE', #37, #142, #253 ) ;
#216 = CC_DESIGN_SECURITY_CLASSIFICATION ( #68, ( #171 ) ) ;
#217 = LOCAL_TIME ( 9, 21, 46.00000000000000000, #45 ) ;
#218 = DIRECTION ( 'NONE',  ( 1.000000000000000000, 0.000000000000000000, 0.000000000000000000 ) ) ;
#219 = PRODUCT_DEFINITION ( 'UNKNOWN', '', #171, #155 ) ;
#220 = LINE ( 'NONE', #135, #286 ) ;
#221 = VERTEX_POINT ( 'NONE', #305 ) ;
#222 =( NAMED_UNIT ( * ) PLANE_ANGLE_UNIT ( ) SI_UNIT ( $, .RADIAN. ) );
#223 = EDGE_LOOP ( 'NONE', ( #249, #225, #173, #262 ) ) ;
#224 = CARTESIAN_POINT ( 'NONE',  ( -0.6520000000000000240, 0.000000000000000000, 1.875000000000000000 ) ) ;
#225 = ORIENTED_EDGE ( 'NONE', *, *, #183, .F. ) ;
#226 = EDGE_CURVE ( 'NONE', #112, #292, #267, .T. ) ;
#227 = APPROVAL_DATE_TIME ( #166, #153 ) ;
#228 = ORIENTED_EDGE ( 'NONE', *, *, #128, .T. ) ;
#229 = ORIENTED_EDGE ( 'NONE', *, *, #106, .T. ) ;
#230 = ORGANIZATION ( 'UNSPECIFIED', 'UNSPECIFIED', '' ) ;
#231 = CARTESIAN_POINT ( 'NONE',  ( 0.000000000000000000, 0.000000000000000000, 1.875000000000000000 ) ) ;
#232 = PLANE ( 'NONE',  #102 ) ;
#233 = CARTESIAN_POINT ( 'NONE',  ( 0.000000000000000000, 0.000000000000000000, 1.875000000000000000 ) ) ;
#234 = PRODUCT_RELATED_PRODUCT_CATEGORY ( 'detail', '', ( #237 ) ) ;
#235 = AXIS2_PLACEMENT_3D ( 'NONE', #79, #30, #265 ) ;
#236 = DIRECTION ( 'NONE',  ( 1.000000000000000000, 0.000000000000000000, 0.000000000000000000 ) ) ;
#237 = PRODUCT ( 'MS0009', 'MS0009', '', ( #197 ) ) ;
#238 = CIRCLE ( 'NONE', #85, 0.6520000000000000240 ) ;
#239 = APPROVAL_PERSON_ORGANIZATION ( #214, #263, #11 ) ;
#240 = ORIENTED_EDGE ( 'NONE', *, *, #21, .F. ) ;
#241 = CARTESIAN_POINT ( 'NONE',  ( 0.000000000000000000, 0.000000000000000000, 1.875000000000000000 ) ) ;
#242 = CARTESIAN_POINT ( 'NONE',  ( 0.000000000000000000, 0.000000000000000000, 0.000000000000000000 ) ) ;
#243 = ORIENTED_EDGE ( 'NONE', *, *, #186, .F. ) ;
#244 = COORDINATED_UNIVERSAL_TIME_OFFSET ( 8, 0, .BEHIND. ) ;
#245 = CIRCLE ( 'NONE', #169, 0.6082677165354329896 ) ;
#246 = ORIENTED_EDGE ( 'NONE', *, *, #329, .T. ) ;
#247 = VECTOR ( 'NONE', #48, 39.37007874015748143 ) ;
#248 = ORIENTED_EDGE ( 'NONE', *, *, #24, .T. ) ;
#249 = ORIENTED_EDGE ( 'NONE', *, *, #120, .F. ) ;
#250 = CYLINDRICAL_SURFACE ( 'NONE', #317, 0.6875000000000000000 ) ;
#251 = FACE_BOUND ( 'NONE', #278, .T. ) ;
#252 = PERSON_AND_ORGANIZATION ( #312, #230 ) ;
#253 = DIRECTION ( 'NONE',  ( 1.000000000000000000, 0.000000000000000000, 0.000000000000000000 ) ) ;
#254 = PERSON_AND_ORGANIZATION_ROLE ( 'creator' ) ;
#255 = CARTESIAN_POINT ( 'NONE',  ( 0.6875000000000000000, 8.419446744138052529E-17, 0.000000000000000000 ) ) ;
#256 = APPROVAL_ROLE ( '' ) ;
#257 = LINE ( 'NONE', #289, #43 ) ;
#258 = DIRECTION ( 'NONE',  ( -0.000000000000000000, 0.000000000000000000, 1.000000000000000000 ) ) ;
#259 = AXIS2_PLACEMENT_3D ( 'NONE', #323, #316, #92 ) ;
#260 = FACE_BOUND ( 'NONE', #276, .T. ) ;
#261 = EDGE_CURVE ( 'NONE', #58, #287, #283, .T. ) ;
#262 = ORIENTED_EDGE ( 'NONE', *, *, #213, .F. ) ;
#263 = APPROVAL ( #293, 'UNSPECIFIED' ) ;
#264 = DIRECTION ( 'NONE',  ( -0.000000000000000000, 0.000000000000000000, 1.000000000000000000 ) ) ;
#265 = DIRECTION ( 'NONE',  ( -1.000000000000000000, 0.000000000000000000, 0.000000000000000000 ) ) ;
#266 = ORIENTED_EDGE ( 'NONE', *, *, #226, .F. ) ;
#267 = CIRCLE ( 'NONE', #137, 0.6082677165354329896 ) ;
#268 = ORIENTED_EDGE ( 'NONE', *, *, #89, .F. ) ;
#269 = ADVANCED_FACE ( 'NONE', ( #260, #127 ), #232, .T. ) ;
#270 = CARTESIAN_POINT ( 'NONE',  ( 0.000000000000000000, 0.000000000000000000, 0.000000000000000000 ) ) ;
#271 = ORIENTED_EDGE ( 'NONE', *, *, #186, .T. ) ;
#272 = CC_DESIGN_PERSON_AND_ORGANIZATION_ASSIGNMENT ( #29, #136, ( #219 ) ) ;
#273 = DIRECTION ( 'NONE',  ( -0.000000000000000000, 0.000000000000000000, 1.000000000000000000 ) ) ;
#274 = AXIS2_PLACEMENT_3D ( 'NONE', #270, #264, #218 ) ;
#275 = COORDINATED_UNIVERSAL_TIME_OFFSET ( 8, 0, .BEHIND. ) ;
#276 = EDGE_LOOP ( 'NONE', ( #266, #240 ) ) ;
#277 = ADVANCED_FACE ( 'NONE', ( #3, #101 ), #9, .T. ) ;
#278 = EDGE_LOOP ( 'NONE', ( #296, #7 ) ) ;
#279 = CARTESIAN_POINT ( 'NONE',  ( 0.6520000000000000240, 7.984697130440741254E-17, 1.875000000000000000 ) ) ;
#280 = EDGE_CURVE ( 'NONE', #292, #325, #57, .T. ) ;
#281 = SHAPE_DEFINITION_REPRESENTATION ( #189, #36 ) ;
#282 = DIRECTION ( 'NONE',  ( 1.000000000000000000, 0.000000000000000000, 0.000000000000000000 ) ) ;
#283 = LINE ( 'NONE', #42, #247 ) ;
#284 = CARTESIAN_POINT ( 'NONE',  ( 0.000000000000000000, 0.000000000000000000, 2.375000000000000000 ) ) ;
#285 = AXIS2_PLACEMENT_3D ( 'NONE', #241, #5, #330 ) ;
#286 = VECTOR ( 'NONE', #140, 39.37007874015748143 ) ;
#287 = VERTEX_POINT ( 'NONE', #224 ) ;
#288 = UNCERTAINTY_MEASURE_WITH_UNIT (LENGTH_MEASURE( 1.000000000000000082E-05 ), #187, 'distance_accuracy_value', 'NONE');
#289 = CARTESIAN_POINT ( 'NONE',  ( 0.6520000000000000240, 7.984697130440741254E-17, 2.375000000000000000 ) ) ;
#290 = EDGE_LOOP ( 'NONE', ( #40, #228 ) ) ;
#291 = DATE_AND_TIME ( #190, #125 ) ;
#292 = VERTEX_POINT ( 'NONE', #195 ) ;
#293 = APPROVAL_STATUS ( 'not_yet_approved' ) ;
#294 = VECTOR ( 'NONE', #23, 39.37007874015748143 ) ;
#295 = CYLINDRICAL_SURFACE ( 'NONE', #259, 0.6875000000000000000 ) ;
#296 = ORIENTED_EDGE ( 'NONE', *, *, #89, .T. ) ;
#297 = DIRECTION ( 'NONE',  ( 0.000000000000000000, 0.000000000000000000, 1.000000000000000000 ) ) ;
#298 = ORIENTED_EDGE ( 'NONE', *, *, #226, .T. ) ;
#299 = CALENDAR_DATE ( 2025, 8, 5 ) ;
#300 = CARTESIAN_POINT ( 'NONE',  ( 0.000000000000000000, 0.000000000000000000, 1.875000000000000000 ) ) ;
#301 = ORIENTED_EDGE ( 'NONE', *, *, #24, .F. ) ;
#302 = CYLINDRICAL_SURFACE ( 'NONE', #180, 0.6520000000000000240 ) ;
#303 = CYLINDRICAL_SURFACE ( 'NONE', #326, 0.6520000000000000240 ) ;
#304 = AXIS2_PLACEMENT_3D ( 'NONE', #231, #328, #98 ) ;
#305 = CARTESIAN_POINT ( 'NONE',  ( 0.6875000000000000000, 8.419446744138052529E-17, 1.875000000000000000 ) ) ;
#306 = ADVANCED_FACE ( 'NONE', ( #32 ), #160, .F. ) ;
#307 = FACE_OUTER_BOUND ( 'NONE', #313, .T. ) ;
#308 = EDGE_CURVE ( 'NONE', #325, #87, #13, .T. ) ;
#309 = APPROVAL_PERSON_ORGANIZATION ( #252, #153, #256 ) ;
#310 = ORIENTED_EDGE ( 'NONE', *, *, #280, .T. ) ;
#311 = DIRECTION ( 'NONE',  ( -1.000000000000000000, 0.000000000000000000, 0.000000000000000000 ) ) ;
#312 = PERSON ( 'UNSPECIFIED', 'UNSPECIFIED', 'UNSPECIFIED', ('UNSPECIFIED'), ('UNSPECIFIED'), ('UNSPECIFIED') ) ;
#313 = EDGE_LOOP ( 'NONE', ( #107, #33, #159, #154 ) ) ;
#314 =( NAMED_UNIT ( * ) SI_UNIT ( $, .STERADIAN. ) SOLID_ANGLE_UNIT ( ) );
#315 = AXIS2_PLACEMENT_3D ( 'NONE', #300, #198, #167 ) ;
#316 = DIRECTION ( 'NONE',  ( -0.000000000000000000, -0.000000000000000000, -1.000000000000000000 ) ) ;
#317 = AXIS2_PLACEMENT_3D ( 'NONE', #165, #95, #121 ) ;
#318 = DIRECTION ( 'NONE',  ( 1.000000000000000000, 0.000000000000000000, 0.000000000000000000 ) ) ;
#319 = LOCAL_TIME ( 9, 21, 46.00000000000000000, #147 ) ;
#320 = DIRECTION ( 'NONE',  ( 1.000000000000000000, 0.000000000000000000, 0.000000000000000000 ) ) ;
#321 = ORIENTED_EDGE ( 'NONE', *, *, #64, .F. ) ;
#322 = APPROVAL_DATE_TIME ( #174, #14 ) ;
#323 = CARTESIAN_POINT ( 'NONE',  ( 0.000000000000000000, 0.000000000000000000, 1.875000000000000000 ) ) ;
#324 = CC_DESIGN_PERSON_AND_ORGANIZATION_ASSIGNMENT ( #99, #327, ( #171 ) ) ;
#325 = VERTEX_POINT ( 'NONE', #62 ) ;
#326 = AXIS2_PLACEMENT_3D ( 'NONE', #126, #56, #311 ) ;
#327 = PERSON_AND_ORGANIZATION_ROLE ( 'design_supplier' ) ;
#328 = DIRECTION ( 'NONE',  ( 0.000000000000000000, -0.000000000000000000, -1.000000000000000000 ) ) ;
#329 = EDGE_CURVE ( 'NONE', #221, #203, #220, .T. ) ;
#330 = DIRECTION ( 'NONE',  ( 1.000000000000000000, 0.000000000000000000, 0.000000000000000000 ) ) ;
#331 = APPROVAL_STATUS ( 'not_yet_approved' ) ;
#332 = DIRECTION ( 'NONE',  ( 1.000000000000000000, 0.000000000000000000, 0.000000000000000000 ) ) ;
ENDSEC;
END-ISO-10303-21;
