ISO-10303-21;
HEADER;
FILE_DESCRIPTION (( 'STEP AP214' ),
    '1' );
FILE_NAME ('MS0008.STEP',
    '2025-05-08T16:49:55',
    ( '' ),
    ( '' ),
    'SwSTEP 2.0',
    'SolidWorks 2023',
    '' );
FILE_SCHEMA (( 'AUTOMOTIVE_DESIGN' ));
ENDSEC;

DATA;
#1 = CARTESIAN_POINT ( 'NONE',  ( 0.000000000000000000, 0.000000000000000000, 2.000000000000000000 ) ) ;
#2 = ADVANCED_FACE ( 'NONE', ( #281, #29 ), #240, .T. ) ;
#3 = CARTESIAN_POINT ( 'NONE',  ( -0.5904999999999999138, 0.000000000000000000, 2.000000000000000000 ) ) ;
#4 = CYLINDRICAL_SURFACE ( 'NONE', #7, 0.5904999999999999138 ) ;
#5 = CIRCLE ( 'NONE', #313, 0.5354330708661416693 ) ;
#6 = FACE_OUTER_BOUND ( 'NONE', #131, .T. ) ;
#7 = AXIS2_PLACEMENT_3D ( 'NONE', #310, #216, #314 ) ;
#8 = DIRECTION ( 'NONE',  ( 1.000000000000000000, 0.000000000000000000, 0.000000000000000000 ) ) ;
#9 =( CONVERSION_BASED_UNIT ( 'INCH', #267 ) LENGTH_UNIT ( ) NAMED_UNIT ( #194 ) );
#10 = EDGE_CURVE ( 'NONE', #271, #211, #214, .T. ) ;
#11 = EDGE_LOOP ( 'NONE', ( #150, #39 ) ) ;
#12 = CIRCLE ( 'NONE', #62, 0.5904999999999999138 ) ;
#13 = FACE_OUTER_BOUND ( 'NONE', #301, .T. ) ;
#14 = EDGE_LOOP ( 'NONE', ( #56, #260, #174, #90 ) ) ;
#15 = DIRECTION ( 'NONE',  ( -1.000000000000000000, 0.000000000000000000, 0.000000000000000000 ) ) ;
#16 = ORIENTED_EDGE ( 'NONE', *, *, #312, .F. ) ;
#17 = PRODUCT_RELATED_PRODUCT_CATEGORY ( 'part', '', ( #92 ) ) ;
#18 = CARTESIAN_POINT ( 'NONE',  ( -0.5654330708661439164, 6.924558003682816678E-17, 2.000000000000000000 ) ) ;
#19 = AXIS2_PLACEMENT_3D ( 'NONE', #257, #323, #306 ) ;
#20 = ORIENTED_EDGE ( 'NONE', *, *, #161, .F. ) ;
#21 = CYLINDRICAL_SURFACE ( 'NONE', #120, 0.6250000000000000000 ) ;
#22 = CARTESIAN_POINT ( 'NONE',  ( 0.000000000000000000, 0.000000000000000000, 1.839999999999984759 ) ) ;
#23 = CIRCLE ( 'NONE', #109, 0.5654330708661439164 ) ;
#24 = DIRECTION ( 'NONE',  ( -1.000000000000000000, 0.000000000000000000, 0.000000000000000000 ) ) ;
#25 = CARTESIAN_POINT ( 'NONE',  ( 0.5354330708661416693, 6.557163963938581947E-17, 0.000000000000000000 ) ) ;
#26 = ORIENTED_EDGE ( 'NONE', *, *, #47, .T. ) ;
#27 = DIRECTION ( 'NONE',  ( -0.000000000000000000, 0.000000000000000000, 1.000000000000000000 ) ) ;
#28 = ADVANCED_FACE ( 'NONE', ( #81 ), #82, .F. ) ;
#29 = FACE_OUTER_BOUND ( 'NONE', #11, .T. ) ;
#30 = DIRECTION ( 'NONE',  ( 0.000000000000000000, -0.000000000000000000, -1.000000000000000000 ) ) ;
#31 = PRODUCT_DEFINITION_CONTEXT ( 'detailed design', #221, 'design' ) ;
#32 = LINE ( 'NONE', #55, #138 ) ;
#33 = CIRCLE ( 'NONE', #79, 0.6250000000000000000 ) ;
#34 = DIRECTION ( 'NONE',  ( 1.000000000000000000, 0.000000000000000000, 0.000000000000000000 ) ) ;
#35 = PRODUCT_CONTEXT ( 'NONE', #182, 'mechanical' ) ;
#36 = CIRCLE ( 'NONE', #192, 0.5354330708661416693 ) ;
#37 = ADVANCED_FACE ( 'NONE', ( #186 ), #58, .T. ) ;
#38 = DIRECTION ( 'NONE',  ( -0.000000000000000000, 0.000000000000000000, 1.000000000000000000 ) ) ;
#39 = ORIENTED_EDGE ( 'NONE', *, *, #10, .T. ) ;
#40 = VERTEX_POINT ( 'NONE', #54 ) ;
#41 = FACE_OUTER_BOUND ( 'NONE', #14, .T. ) ;
#42 = VERTEX_POINT ( 'NONE', #235 ) ;
#43 = EDGE_CURVE ( 'NONE', #66, #298, #5, .T. ) ;
#44 = DIRECTION ( 'NONE',  ( 1.000000000000000000, 0.000000000000000000, 0.000000000000000000 ) ) ;
#45 = ORIENTED_EDGE ( 'NONE', *, *, #190, .F. ) ;
#46 = CARTESIAN_POINT ( 'NONE',  ( 0.000000000000000000, 0.000000000000000000, 1.500000000000000222 ) ) ;
#47 = EDGE_CURVE ( 'NONE', #209, #324, #49, .T. ) ;
#48 = EDGE_LOOP ( 'NONE', ( #303, #262, #256, #16 ) ) ;
#49 = CIRCLE ( 'NONE', #242, 0.5354330708661416693 ) ;
#50 = CARTESIAN_POINT ( 'NONE',  ( 0.000000000000000000, 0.000000000000000000, 1.500000000000000222 ) ) ;
#51 = EDGE_LOOP ( 'NONE', ( #20, #26, #222, #68 ) ) ;
#52 = DIRECTION ( 'NONE',  ( 0.000000000000000000, -0.000000000000000000, -1.000000000000000000 ) ) ;
#53 = CIRCLE ( 'NONE', #125, 0.6250000000000000000 ) ;
#54 = CARTESIAN_POINT ( 'NONE',  ( 0.5654330708661439164, 0.000000000000000000, 2.000000000000000000 ) ) ;
#55 = CARTESIAN_POINT ( 'NONE',  ( -0.6250000000000000000, 0.000000000000000000, 1.500000000000000222 ) ) ;
#56 = ORIENTED_EDGE ( 'NONE', *, *, #329, .F. ) ;
#57 = DIRECTION ( 'NONE',  ( 1.000000000000000000, 0.000000000000000000, 0.000000000000000000 ) ) ;
#58 = CYLINDRICAL_SURFACE ( 'NONE', #86, 0.5904999999999999138 ) ;
#59 = CARTESIAN_POINT ( 'NONE',  ( 0.000000000000000000, 0.000000000000000000, 1.500000000000000222 ) ) ;
#60 = MECHANICAL_DESIGN_GEOMETRIC_PRESENTATION_REPRESENTATION (  '', ( #270 ), #285 ) ;
#61 = FILL_AREA_STYLE ('',( #181 ) ) ;
#62 = AXIS2_PLACEMENT_3D ( 'NONE', #170, #97, #69 ) ;
#63 = ADVANCED_BREP_SHAPE_REPRESENTATION ( 'MS0008', ( #327, #80 ), #133 ) ;
#64 = CARTESIAN_POINT ( 'NONE',  ( 0.000000000000000000, 0.000000000000000000, 0.000000000000000000 ) ) ;
#65 = AXIS2_PLACEMENT_3D ( 'NONE', #291, #334, #78 ) ;
#66 = VERTEX_POINT ( 'NONE', #232 ) ;
#67 = LINE ( 'NONE', #248, #228 ) ;
#68 = ORIENTED_EDGE ( 'NONE', *, *, #245, .F. ) ;
#69 = DIRECTION ( 'NONE',  ( 1.000000000000000000, 0.000000000000000000, 0.000000000000000000 ) ) ;
#70 = EDGE_CURVE ( 'NONE', #324, #66, #67, .T. ) ;
#71 = LINE ( 'NONE', #278, #284 ) ;
#72 = ADVANCED_FACE ( 'NONE', ( #91 ), #325, .F. ) ;
#73 = ORIENTED_EDGE ( 'NONE', *, *, #191, .F. ) ;
#74 = CARTESIAN_POINT ( 'NONE',  ( 0.000000000000000000, 0.000000000000000000, 1.839999999999984759 ) ) ;
#75 = ORIENTED_EDGE ( 'NONE', *, *, #111, .F. ) ;
#76 = CARTESIAN_POINT ( 'NONE',  ( 0.000000000000000000, 0.000000000000000000, 0.000000000000000000 ) ) ;
#77 = DIRECTION ( 'NONE',  ( -0.000000000000000000, 0.000000000000000000, 1.000000000000000000 ) ) ;
#78 = DIRECTION ( 'NONE',  ( 1.000000000000000000, 0.000000000000000000, 0.000000000000000000 ) ) ;
#79 = AXIS2_PLACEMENT_3D ( 'NONE', #101, #243, #215 ) ;
#80 = AXIS2_PLACEMENT_3D ( 'NONE', #64, #269, #34 ) ;
#81 = FACE_OUTER_BOUND ( 'NONE', #51, .T. ) ;
#82 = CYLINDRICAL_SURFACE ( 'NONE', #152, 0.5354330708661416693 ) ;
#83 = CARTESIAN_POINT ( 'NONE',  ( -0.5354330708661416693, 0.000000000000000000, 1.839999999999984759 ) ) ;
#84 = DIRECTION ( 'NONE',  ( -0.000000000000000000, -0.000000000000000000, -1.000000000000000000 ) ) ;
#85 = ADVANCED_FACE ( 'NONE', ( #13 ), #21, .T. ) ;
#86 = AXIS2_PLACEMENT_3D ( 'NONE', #258, #309, #24 ) ;
#87 = ORIENTED_EDGE ( 'NONE', *, *, #299, .T. ) ;
#88 = CONICAL_SURFACE ( 'NONE', #156, 0.5354330708661416693, 0.1853479499956908472 ) ;
#89 = DIRECTION ( 'NONE',  ( 0.000000000000000000, 0.000000000000000000, 1.000000000000000000 ) ) ;
#90 = ORIENTED_EDGE ( 'NONE', *, *, #218, .F. ) ;
#91 = FACE_OUTER_BOUND ( 'NONE', #148, .T. ) ;
#92 = PRODUCT ( 'MS0008', 'MS0008', '', ( #35 ) ) ;
#93 = EDGE_CURVE ( 'NONE', #324, #112, #149, .T. ) ;
#94 = EDGE_CURVE ( 'NONE', #324, #209, #36, .T. ) ;
#95 = DIRECTION ( 'NONE',  ( -0.000000000000000000, -0.000000000000000000, -1.000000000000000000 ) ) ;
#96 = ORIENTED_EDGE ( 'NONE', *, *, #292, .F. ) ;
#97 = DIRECTION ( 'NONE',  ( -0.000000000000000000, 0.000000000000000000, 1.000000000000000000 ) ) ;
#98 = VERTEX_POINT ( 'NONE', #113 ) ;
#99 = PLANE ( 'NONE',  #19 ) ;
#100 = EDGE_LOOP ( 'NONE', ( #289, #305, #75, #225 ) ) ;
#101 = CARTESIAN_POINT ( 'NONE',  ( 0.000000000000000000, 0.000000000000000000, 0.000000000000000000 ) ) ;
#102 = DIRECTION ( 'NONE',  ( 0.000000000000000000, 0.000000000000000000, 1.000000000000000000 ) ) ;
#103 = PLANE ( 'NONE',  #259 ) ;
#104 = DIRECTION ( 'NONE',  ( 1.000000000000000000, 0.000000000000000000, 0.000000000000000000 ) ) ;
#105 = DIRECTION ( 'NONE',  ( 1.000000000000000000, 0.000000000000000000, 0.000000000000000000 ) ) ;
#106 = PRESENTATION_LAYER_ASSIGNMENT (  '', '', ( #270 ) ) ;
#107 = CARTESIAN_POINT ( 'NONE',  ( 0.000000000000000000, 0.000000000000000000, 0.000000000000000000 ) ) ;
#108 = PRESENTATION_STYLE_ASSIGNMENT (( #187 ) ) ;
#109 = AXIS2_PLACEMENT_3D ( 'NONE', #263, #30, #213 ) ;
#110 = APPLICATION_PROTOCOL_DEFINITION ( 'draft international standard', 'automotive_design', 1998, #221 ) ;
#111 = EDGE_CURVE ( 'NONE', #40, #112, #118, .T. ) ;
#112 = VERTEX_POINT ( 'NONE', #18 ) ;
#113 = CARTESIAN_POINT ( 'NONE',  ( 0.5904999999999999138, 7.231539348965120083E-17, 1.500000000000000222 ) ) ;
#114 = ORIENTED_EDGE ( 'NONE', *, *, #10, .F. ) ;
#115 = COLOUR_RGB ( '',0.7921568627450980005, 0.8196078431372548767, 0.9333333333333333481 ) ;
#116 = FACE_OUTER_BOUND ( 'NONE', #307, .T. ) ;
#117 = VERTEX_POINT ( 'NONE', #280 ) ;
#118 = CIRCLE ( 'NONE', #165, 0.5654330708661439164 ) ;
#119 = DIRECTION ( 'NONE',  ( -0.000000000000000000, 0.000000000000000000, 1.000000000000000000 ) ) ;
#120 = AXIS2_PLACEMENT_3D ( 'NONE', #46, #151, #15 ) ;
#121 = AXIS2_PLACEMENT_3D ( 'NONE', #1, #238, #104 ) ;
#122 = VERTEX_POINT ( 'NONE', #328 ) ;
#123 = CYLINDRICAL_SURFACE ( 'NONE', #219, 0.6250000000000000000 ) ;
#124 = ORIENTED_EDGE ( 'NONE', *, *, #111, .T. ) ;
#125 = AXIS2_PLACEMENT_3D ( 'NONE', #76, #119, #226 ) ;
#126 = CARTESIAN_POINT ( 'NONE',  ( 0.5354330708661416693, 6.557163963938581947E-17, 1.500000000000000222 ) ) ;
#127 = CARTESIAN_POINT ( 'NONE',  ( 0.000000000000000000, 0.000000000000000000, 2.000000000000000000 ) ) ;
#128 = DIRECTION ( 'NONE',  ( -0.000000000000000000, -0.000000000000000000, -1.000000000000000000 ) ) ;
#129 = ORIENTED_EDGE ( 'NONE', *, *, #312, .T. ) ;
#130 = DIRECTION ( 'NONE',  ( -0.000000000000000000, 0.000000000000000000, 1.000000000000000000 ) ) ;
#131 = EDGE_LOOP ( 'NONE', ( #321, #198 ) ) ;
#132 = DIRECTION ( 'NONE',  ( -0.000000000000000000, -0.000000000000000000, -1.000000000000000000 ) ) ;
#133 =( GEOMETRIC_REPRESENTATION_CONTEXT ( 3 ) GLOBAL_UNCERTAINTY_ASSIGNED_CONTEXT ( ( #290 ) ) GLOBAL_UNIT_ASSIGNED_CONTEXT ( ( #9, #164, #318 ) ) REPRESENTATION_CONTEXT ( 'NONE', 'WORKASPACE' ) );
#134 = VECTOR ( 'NONE', #250, 39.37007874015748854 ) ;
#135 = ADVANCED_FACE ( 'NONE', ( #116, #331 ), #99, .F. ) ;
#136 = DIRECTION ( 'NONE',  ( 1.000000000000000000, 0.000000000000000000, 0.000000000000000000 ) ) ;
#137 = SURFACE_SIDE_STYLE ('',( #265 ) ) ;
#138 = VECTOR ( 'NONE', #128, 39.37007874015748143 ) ;
#139 = AXIS2_PLACEMENT_3D ( 'NONE', #50, #223, #206 ) ;
#140 = ADVANCED_FACE ( 'NONE', ( #282 ), #212, .F. ) ;
#141 = ADVANCED_FACE ( 'NONE', ( #41 ), #123, .T. ) ;
#142 = AXIS2_PLACEMENT_3D ( 'NONE', #158, #38, #8 ) ;
#143 = ORIENTED_EDGE ( 'NONE', *, *, #245, .T. ) ;
#144 = ORIENTED_EDGE ( 'NONE', *, *, #70, .F. ) ;
#145 = DIMENSIONAL_EXPONENTS ( 1.000000000000000000, 0.000000000000000000, 0.000000000000000000, 0.000000000000000000, 0.000000000000000000, 0.000000000000000000, 0.000000000000000000 ) ;
#146 = DIRECTION ( 'NONE',  ( 1.000000000000000000, 0.000000000000000000, 0.000000000000000000 ) ) ;
#147 = EDGE_CURVE ( 'NONE', #211, #271, #12, .T. ) ;
#148 = EDGE_LOOP ( 'NONE', ( #279, #205, #330, #144 ) ) ;
#149 = LINE ( 'NONE', #252, #185 ) ;
#150 = ORIENTED_EDGE ( 'NONE', *, *, #147, .T. ) ;
#151 = DIRECTION ( 'NONE',  ( -0.000000000000000000, -0.000000000000000000, -1.000000000000000000 ) ) ;
#152 = AXIS2_PLACEMENT_3D ( 'NONE', #179, #155, #335 ) ;
#153 = VERTEX_POINT ( 'NONE', #204 ) ;
#154 = CARTESIAN_POINT ( 'NONE',  ( 0.000000000000000000, 0.000000000000000000, 2.000000000000000000 ) ) ;
#155 = DIRECTION ( 'NONE',  ( -0.000000000000000000, -0.000000000000000000, -1.000000000000000000 ) ) ;
#156 = AXIS2_PLACEMENT_3D ( 'NONE', #74, #173, #44 ) ;
#157 = CARTESIAN_POINT ( 'NONE',  ( 0.000000000000000000, 0.000000000000000000, 1.839999999999984759 ) ) ;
#158 = CARTESIAN_POINT ( 'NONE',  ( 0.000000000000000000, 0.000000000000000000, 1.500000000000000222 ) ) ;
#159 = ORIENTED_EDGE ( 'NONE', *, *, #203, .F. ) ;
#160 = CARTESIAN_POINT ( 'NONE',  ( 0.5904999999999999138, 7.231539348965120083E-17, 2.000000000000000000 ) ) ;
#161 = EDGE_CURVE ( 'NONE', #209, #298, #234, .T. ) ;
#162 = EDGE_CURVE ( 'NONE', #209, #40, #171, .T. ) ;
#163 = DIRECTION ( 'NONE',  ( -0.000000000000000000, 0.000000000000000000, 1.000000000000000000 ) ) ;
#164 =( NAMED_UNIT ( * ) PLANE_ANGLE_UNIT ( ) SI_UNIT ( $, .RADIAN. ) );
#165 = AXIS2_PLACEMENT_3D ( 'NONE', #154, #52, #332 ) ;
#166 = APPLICATION_PROTOCOL_DEFINITION ( 'draft international standard', 'automotive_design', 1998, #182 ) ;
#167 = ADVANCED_FACE ( 'NONE', ( #178 ), #88, .F. ) ;
#168 = VECTOR ( 'NONE', #84, 39.37007874015748143 ) ;
#169 = EDGE_LOOP ( 'NONE', ( #124, #129 ) ) ;
#170 = CARTESIAN_POINT ( 'NONE',  ( 0.000000000000000000, 0.000000000000000000, 2.000000000000000000 ) ) ;
#171 = LINE ( 'NONE', #304, #134 ) ;
#172 = ORIENTED_EDGE ( 'NONE', *, *, #43, .T. ) ;
#173 = DIRECTION ( 'NONE',  ( 0.000000000000000000, 0.000000000000000000, 1.000000000000000000 ) ) ;
#174 = ORIENTED_EDGE ( 'NONE', *, *, #264, .T. ) ;
#175 = DIRECTION ( 'NONE',  ( 1.000000000000000000, 0.000000000000000000, 0.000000000000000000 ) ) ;
#176 = CLOSED_SHELL ( 'NONE', ( #167, #37, #72, #141, #85, #28, #274, #135, #319, #2, #140 ) ) ;
#177 = ORIENTED_EDGE ( 'NONE', *, *, #190, .T. ) ;
#178 = FACE_OUTER_BOUND ( 'NONE', #100, .T. ) ;
#179 = CARTESIAN_POINT ( 'NONE',  ( 0.000000000000000000, 0.000000000000000000, 1.500000000000000222 ) ) ;
#180 = CIRCLE ( 'NONE', #224, 0.5354330708661416693 ) ;
#181 = FILL_AREA_STYLE_COLOUR ( '', #115 ) ;
#182 = APPLICATION_CONTEXT ( 'automotive_design' ) ;
#183 = DIRECTION ( 'NONE',  ( 1.000000000000000000, 0.000000000000000000, 0.000000000000000000 ) ) ;
#184 = UNCERTAINTY_MEASURE_WITH_UNIT (LENGTH_MEASURE( 1.000000000000000082E-05 ), #239, 'distance_accuracy_value', 'NONE');
#185 = VECTOR ( 'NONE', #297, 39.37007874015748854 ) ;
#186 = FACE_OUTER_BOUND ( 'NONE', #296, .T. ) ;
#187 = SURFACE_STYLE_USAGE ( .BOTH. , #137 ) ;
#188 = FACE_BOUND ( 'NONE', #233, .T. ) ;
#189 = PRODUCT_DEFINITION ( 'UNKNOWN', '', #246, #31 ) ;
#190 = EDGE_CURVE ( 'NONE', #287, #122, #53, .T. ) ;
#191 = EDGE_CURVE ( 'NONE', #42, #122, #275, .T. ) ;
#192 = AXIS2_PLACEMENT_3D ( 'NONE', #22, #302, #175 ) ;
#193 = SHAPE_DEFINITION_REPRESENTATION ( #277, #63 ) ;
#194 = DIMENSIONAL_EXPONENTS ( 1.000000000000000000, 0.000000000000000000, 0.000000000000000000, 0.000000000000000000, 0.000000000000000000, 0.000000000000000000, 0.000000000000000000 ) ;
#195 = CIRCLE ( 'NONE', #65, 0.5904999999999999138 ) ;
#196 = ORIENTED_EDGE ( 'NONE', *, *, #218, .T. ) ;
#197 = DIRECTION ( 'NONE',  ( -1.000000000000000000, 0.000000000000000000, 0.000000000000000000 ) ) ;
#198 = ORIENTED_EDGE ( 'NONE', *, *, #329, .T. ) ;
#199 = DIRECTION ( 'NONE',  ( -0.000000000000000000, -0.000000000000000000, -1.000000000000000000 ) ) ;
#200 = ORIENTED_EDGE ( 'NONE', *, *, #231, .F. ) ;
#201 = CARTESIAN_POINT ( 'NONE',  ( 0.000000000000000000, 0.000000000000000000, 1.500000000000000222 ) ) ;
#202 = CIRCLE ( 'NONE', #142, 0.6250000000000000000 ) ;
#203 = EDGE_CURVE ( 'NONE', #271, #98, #71, .T. ) ;
#204 = CARTESIAN_POINT ( 'NONE',  ( -0.5904999999999999138, 0.000000000000000000, 1.500000000000000222 ) ) ;
#205 = ORIENTED_EDGE ( 'NONE', *, *, #161, .T. ) ;
#206 = DIRECTION ( 'NONE',  ( -1.000000000000000000, 0.000000000000000000, 0.000000000000000000 ) ) ;
#207 = DIRECTION ( 'NONE',  ( -0.000000000000000000, 0.000000000000000000, 1.000000000000000000 ) ) ;
#208 = CARTESIAN_POINT ( 'NONE',  ( -0.6250000000000000000, 0.000000000000000000, 0.000000000000000000 ) ) ;
#209 = VERTEX_POINT ( 'NONE', #315 ) ;
#210 = CARTESIAN_POINT ( 'NONE',  ( -0.5904999999999999138, 0.000000000000000000, 2.000000000000000000 ) ) ;
#211 = VERTEX_POINT ( 'NONE', #210 ) ;
#212 = CONICAL_SURFACE ( 'NONE', #266, 0.5354330708661416693, 0.1853479499956908472 ) ;
#213 = DIRECTION ( 'NONE',  ( 1.000000000000000000, 0.000000000000000000, 0.000000000000000000 ) ) ;
#214 = CIRCLE ( 'NONE', #121, 0.5904999999999999138 ) ;
#215 = DIRECTION ( 'NONE',  ( 1.000000000000000000, 0.000000000000000000, 0.000000000000000000 ) ) ;
#216 = DIRECTION ( 'NONE',  ( -0.000000000000000000, -0.000000000000000000, -1.000000000000000000 ) ) ;
#217 = VECTOR ( 'NONE', #95, 39.37007874015748143 ) ;
#218 = EDGE_CURVE ( 'NONE', #117, #287, #32, .T. ) ;
#219 = AXIS2_PLACEMENT_3D ( 'NONE', #201, #255, #197 ) ;
#220 = AXIS2_PLACEMENT_3D ( 'NONE', #127, #77, #311 ) ;
#221 = APPLICATION_CONTEXT ( 'automotive_design' ) ;
#222 = ORIENTED_EDGE ( 'NONE', *, *, #70, .T. ) ;
#223 = DIRECTION ( 'NONE',  ( -0.000000000000000000, -0.000000000000000000, -1.000000000000000000 ) ) ;
#224 = AXIS2_PLACEMENT_3D ( 'NONE', #107, #163, #57 ) ;
#225 = ORIENTED_EDGE ( 'NONE', *, *, #162, .F. ) ;
#226 = DIRECTION ( 'NONE',  ( 1.000000000000000000, 0.000000000000000000, 0.000000000000000000 ) ) ;
#227 = ORIENTED_EDGE ( 'NONE', *, *, #253, .F. ) ;
#228 = VECTOR ( 'NONE', #199, 39.37007874015748143 ) ;
#229 = CARTESIAN_POINT ( 'NONE',  ( 0.6250000000000000000, 7.654042494670955388E-17, 1.500000000000000222 ) ) ;
#230 = EDGE_LOOP ( 'NONE', ( #172, #143 ) ) ;
#231 = EDGE_CURVE ( 'NONE', #98, #153, #195, .T. ) ;
#232 = CARTESIAN_POINT ( 'NONE',  ( -0.5354330708661416693, 0.000000000000000000, 0.000000000000000000 ) ) ;
#233 = EDGE_LOOP ( 'NONE', ( #276, #326 ) ) ;
#234 = LINE ( 'NONE', #126, #237 ) ;
#235 = CARTESIAN_POINT ( 'NONE',  ( 0.6250000000000000000, 7.654042494670955388E-17, 1.500000000000000222 ) ) ;
#236 = DIRECTION ( 'NONE',  ( 1.000000000000000000, 0.000000000000000000, 0.000000000000000000 ) ) ;
#237 = VECTOR ( 'NONE', #272, 39.37007874015748143 ) ;
#238 = DIRECTION ( 'NONE',  ( -0.000000000000000000, 0.000000000000000000, 1.000000000000000000 ) ) ;
#239 =( CONVERSION_BASED_UNIT ( 'INCH', #286 ) LENGTH_UNIT ( ) NAMED_UNIT ( #145 ) );
#240 = PLANE ( 'NONE',  #220 ) ;
#241 = LINE ( 'NONE', #3, #168 ) ;
#242 = AXIS2_PLACEMENT_3D ( 'NONE', #157, #102, #183 ) ;
#243 = DIRECTION ( 'NONE',  ( -0.000000000000000000, 0.000000000000000000, 1.000000000000000000 ) ) ;
#244 = CIRCLE ( 'NONE', #322, 0.5904999999999999138 ) ;
#245 = EDGE_CURVE ( 'NONE', #298, #66, #180, .T. ) ;
#246 = PRODUCT_DEFINITION_FORMATION_WITH_SPECIFIED_SOURCE ( 'ANY', '', #92, .NOT_KNOWN. ) ;
#247 = ORIENTED_EDGE ( 'NONE', *, *, #264, .F. ) ;
#248 = CARTESIAN_POINT ( 'NONE',  ( -0.5354330708661416693, 0.000000000000000000, 1.500000000000000222 ) ) ;
#249 = ORIENTED_EDGE ( 'NONE', *, *, #299, .F. ) ;
#250 = DIRECTION ( 'NONE',  ( 0.1842885350501815012, 0.000000000000000000, 0.9828721869343226558 ) ) ;
#251 = ORIENTED_EDGE ( 'NONE', *, *, #203, .T. ) ;
#252 = CARTESIAN_POINT ( 'NONE',  ( -0.5354330708661416693, 6.557163963938584412E-17, 1.839999999999984759 ) ) ;
#253 = EDGE_CURVE ( 'NONE', #153, #98, #244, .T. ) ;
#254 = EDGE_LOOP ( 'NONE', ( #159, #273, #87, #200 ) ) ;
#255 = DIRECTION ( 'NONE',  ( -0.000000000000000000, -0.000000000000000000, -1.000000000000000000 ) ) ;
#256 = ORIENTED_EDGE ( 'NONE', *, *, #162, .T. ) ;
#257 = CARTESIAN_POINT ( 'NONE',  ( 0.000000000000000000, 0.000000000000000000, 0.000000000000000000 ) ) ;
#258 = CARTESIAN_POINT ( 'NONE',  ( 0.000000000000000000, 0.000000000000000000, 2.000000000000000000 ) ) ;
#259 = AXIS2_PLACEMENT_3D ( 'NONE', #288, #27, #236 ) ;
#260 = ORIENTED_EDGE ( 'NONE', *, *, #191, .T. ) ;
#261 = DIRECTION ( 'NONE',  ( 0.000000000000000000, -0.000000000000000000, -1.000000000000000000 ) ) ;
#262 = ORIENTED_EDGE ( 'NONE', *, *, #47, .F. ) ;
#263 = CARTESIAN_POINT ( 'NONE',  ( 0.000000000000000000, 0.000000000000000000, 2.000000000000000000 ) ) ;
#264 = EDGE_CURVE ( 'NONE', #122, #287, #33, .T. ) ;
#265 = SURFACE_STYLE_FILL_AREA ( #61 ) ;
#266 = AXIS2_PLACEMENT_3D ( 'NONE', #300, #89, #146 ) ;
#267 = LENGTH_MEASURE_WITH_UNIT ( LENGTH_MEASURE( 0.02539999999999999897 ), #317 );
#268 = AXIS2_PLACEMENT_3D ( 'NONE', #308, #130, #105 ) ;
#269 = DIRECTION ( 'NONE',  ( 0.000000000000000000, 0.000000000000000000, 1.000000000000000000 ) ) ;
#270 = STYLED_ITEM ( 'NONE', ( #108 ), #327 ) ;
#271 = VERTEX_POINT ( 'NONE', #160 ) ;
#272 = DIRECTION ( 'NONE',  ( -0.000000000000000000, -0.000000000000000000, -1.000000000000000000 ) ) ;
#273 = ORIENTED_EDGE ( 'NONE', *, *, #147, .F. ) ;
#274 = ADVANCED_FACE ( 'NONE', ( #188, #6 ), #103, .T. ) ;
#275 = LINE ( 'NONE', #229, #217 ) ;
#276 = ORIENTED_EDGE ( 'NONE', *, *, #253, .T. ) ;
#277 = PRODUCT_DEFINITION_SHAPE ( 'NONE', 'NONE',  #189 ) ;
#278 = CARTESIAN_POINT ( 'NONE',  ( 0.5904999999999999138, 7.231539348965120083E-17, 2.000000000000000000 ) ) ;
#279 = ORIENTED_EDGE ( 'NONE', *, *, #94, .T. ) ;
#280 = CARTESIAN_POINT ( 'NONE',  ( -0.6250000000000000000, 0.000000000000000000, 1.500000000000000222 ) ) ;
#281 = FACE_BOUND ( 'NONE', #169, .T. ) ;
#282 = FACE_OUTER_BOUND ( 'NONE', #48, .T. ) ;
#283 = DIRECTION ( 'NONE',  ( 1.000000000000000000, 0.000000000000000000, 0.000000000000000000 ) ) ;
#284 = VECTOR ( 'NONE', #132, 39.37007874015748143 ) ;
#285 =( GEOMETRIC_REPRESENTATION_CONTEXT ( 3 ) GLOBAL_UNCERTAINTY_ASSIGNED_CONTEXT ( ( #184 ) ) GLOBAL_UNIT_ASSIGNED_CONTEXT ( ( #239, #295, #320 ) ) REPRESENTATION_CONTEXT ( 'NONE', 'WORKASPACE' ) );
#286 = LENGTH_MEASURE_WITH_UNIT ( LENGTH_MEASURE( 0.02539999999999999897 ), #294 );
#287 = VERTEX_POINT ( 'NONE', #208 ) ;
#288 = CARTESIAN_POINT ( 'NONE',  ( 0.000000000000000000, 0.000000000000000000, 1.500000000000000222 ) ) ;
#289 = ORIENTED_EDGE ( 'NONE', *, *, #94, .F. ) ;
#290 = UNCERTAINTY_MEASURE_WITH_UNIT (LENGTH_MEASURE( 1.000000000000000082E-05 ), #9, 'distance_accuracy_value', 'NONE');
#291 = CARTESIAN_POINT ( 'NONE',  ( 0.000000000000000000, 0.000000000000000000, 1.500000000000000222 ) ) ;
#292 = EDGE_CURVE ( 'NONE', #117, #42, #316, .T. ) ;
#293 = FACE_OUTER_BOUND ( 'NONE', #254, .T. ) ;
#294 =( LENGTH_UNIT ( ) NAMED_UNIT ( * ) SI_UNIT ( $, .METRE. ) );
#295 =( NAMED_UNIT ( * ) PLANE_ANGLE_UNIT ( ) SI_UNIT ( $, .RADIAN. ) );
#296 = EDGE_LOOP ( 'NONE', ( #114, #251, #227, #249 ) ) ;
#297 = DIRECTION ( 'NONE',  ( -0.1842885350501815012, 2.256883645687595829E-17, 0.9828721869343226558 ) ) ;
#298 = VERTEX_POINT ( 'NONE', #25 ) ;
#299 = EDGE_CURVE ( 'NONE', #211, #153, #241, .T. ) ;
#300 = CARTESIAN_POINT ( 'NONE',  ( 0.000000000000000000, 0.000000000000000000, 1.839999999999984759 ) ) ;
#301 = EDGE_LOOP ( 'NONE', ( #73, #96, #196, #177 ) ) ;
#302 = DIRECTION ( 'NONE',  ( 0.000000000000000000, 0.000000000000000000, 1.000000000000000000 ) ) ;
#303 = ORIENTED_EDGE ( 'NONE', *, *, #93, .F. ) ;
#304 = CARTESIAN_POINT ( 'NONE',  ( 0.5354330708661416693, 0.000000000000000000, 1.839999999999984759 ) ) ;
#305 = ORIENTED_EDGE ( 'NONE', *, *, #93, .T. ) ;
#306 = DIRECTION ( 'NONE',  ( 1.000000000000000000, 0.000000000000000000, 0.000000000000000000 ) ) ;
#307 = EDGE_LOOP ( 'NONE', ( #45, #247 ) ) ;
#308 = CARTESIAN_POINT ( 'NONE',  ( 0.000000000000000000, 0.000000000000000000, 1.500000000000000222 ) ) ;
#309 = DIRECTION ( 'NONE',  ( -0.000000000000000000, -0.000000000000000000, -1.000000000000000000 ) ) ;
#310 = CARTESIAN_POINT ( 'NONE',  ( 0.000000000000000000, 0.000000000000000000, 2.000000000000000000 ) ) ;
#311 = DIRECTION ( 'NONE',  ( 1.000000000000000000, 0.000000000000000000, 0.000000000000000000 ) ) ;
#312 = EDGE_CURVE ( 'NONE', #112, #40, #23, .T. ) ;
#313 = AXIS2_PLACEMENT_3D ( 'NONE', #333, #207, #283 ) ;
#314 = DIRECTION ( 'NONE',  ( -1.000000000000000000, 0.000000000000000000, 0.000000000000000000 ) ) ;
#315 = CARTESIAN_POINT ( 'NONE',  ( 0.5354330708661416693, 6.557163963938581947E-17, 1.839999999999984759 ) ) ;
#316 = CIRCLE ( 'NONE', #268, 0.6250000000000000000 ) ;
#317 =( LENGTH_UNIT ( ) NAMED_UNIT ( * ) SI_UNIT ( $, .METRE. ) );
#318 =( NAMED_UNIT ( * ) SI_UNIT ( $, .STERADIAN. ) SOLID_ANGLE_UNIT ( ) );
#319 = ADVANCED_FACE ( 'NONE', ( #293 ), #4, .T. ) ;
#320 =( NAMED_UNIT ( * ) SI_UNIT ( $, .STERADIAN. ) SOLID_ANGLE_UNIT ( ) );
#321 = ORIENTED_EDGE ( 'NONE', *, *, #292, .T. ) ;
#322 = AXIS2_PLACEMENT_3D ( 'NONE', #59, #261, #136 ) ;
#323 = DIRECTION ( 'NONE',  ( -0.000000000000000000, 0.000000000000000000, 1.000000000000000000 ) ) ;
#324 = VERTEX_POINT ( 'NONE', #83 ) ;
#325 = CYLINDRICAL_SURFACE ( 'NONE', #139, 0.5354330708661416693 ) ;
#326 = ORIENTED_EDGE ( 'NONE', *, *, #231, .T. ) ;
#327 = MANIFOLD_SOLID_BREP ( 'Chamfer1', #176 ) ;
#328 = CARTESIAN_POINT ( 'NONE',  ( 0.6250000000000000000, 7.654042494670955388E-17, 0.000000000000000000 ) ) ;
#329 = EDGE_CURVE ( 'NONE', #42, #117, #202, .T. ) ;
#330 = ORIENTED_EDGE ( 'NONE', *, *, #43, .F. ) ;
#331 = FACE_BOUND ( 'NONE', #230, .T. ) ;
#332 = DIRECTION ( 'NONE',  ( 1.000000000000000000, 0.000000000000000000, 0.000000000000000000 ) ) ;
#333 = CARTESIAN_POINT ( 'NONE',  ( 0.000000000000000000, 0.000000000000000000, 0.000000000000000000 ) ) ;
#334 = DIRECTION ( 'NONE',  ( 0.000000000000000000, -0.000000000000000000, -1.000000000000000000 ) ) ;
#335 = DIRECTION ( 'NONE',  ( -1.000000000000000000, 0.000000000000000000, 0.000000000000000000 ) ) ;
ENDSEC;
END-ISO-10303-21;
