ISO-10303-21;
HEADER;
FILE_DESCRIPTION (( 'STEP AP214' ),
    '1' );
FILE_NAME ('MS0002.STEP',
    '2025-05-08T16:21:09',
    ( '' ),
    ( '' ),
    'SwSTEP 2.0',
    'SolidWorks 2023',
    '' );
FILE_SCHEMA (( 'AUTOMOTIVE_DESIGN' ));
ENDSEC;

DATA;
#1 = CARTESIAN_POINT ( 'NONE',  ( 0.000000000000000000, 0.000000000000000000, 2.375000000000000000 ) ) ;
#2 = CARTESIAN_POINT ( 'NONE',  ( 0.000000000000000000, 0.000000000000000000, 1.875000000000000000 ) ) ;
#3 = ORIENTED_EDGE ( 'NONE', *, *, #22, .F. ) ;
#4 = ORIENTED_EDGE ( 'NONE', *, *, #184, .T. ) ;
#5 = PLANE ( 'NONE',  #248 ) ;
#6 = ADVANCED_FACE ( 'NONE', ( #223 ), #224, .F. ) ;
#7 = DIRECTION ( 'NONE',  ( -0.000000000000000000, -0.000000000000000000, -1.000000000000000000 ) ) ;
#8 =( NAMED_UNIT ( * ) PLANE_ANGLE_UNIT ( ) SI_UNIT ( $, .RADIAN. ) );
#9 = CARTESIAN_POINT ( 'NONE',  ( 0.6875000000000000000, 8.419446744138052529E-17, 1.875000000000000000 ) ) ;
#10 = CARTESIAN_POINT ( 'NONE',  ( 0.000000000000000000, 0.000000000000000000, 1.875000000000000000 ) ) ;
#11 = LINE ( 'NONE', #75, #275 ) ;
#12 = UNCERTAINTY_MEASURE_WITH_UNIT (LENGTH_MEASURE( 1.000000000000000082E-05 ), #51, 'distance_accuracy_value', 'NONE');
#13 = DIRECTION ( 'NONE',  ( 0.000000000000000000, -0.000000000000000000, -1.000000000000000000 ) ) ;
#14 = ORIENTED_EDGE ( 'NONE', *, *, #89, .F. ) ;
#15 = FACE_BOUND ( 'NONE', #141, .T. ) ;
#16 = DIMENSIONAL_EXPONENTS ( 1.000000000000000000, 0.000000000000000000, 0.000000000000000000, 0.000000000000000000, 0.000000000000000000, 0.000000000000000000, 0.000000000000000000 ) ;
#17 = DIRECTION ( 'NONE',  ( -1.000000000000000000, 0.000000000000000000, 0.000000000000000000 ) ) ;
#18 = PRODUCT_DEFINITION ( 'UNKNOWN', '', #71, #212 ) ;
#19 = VERTEX_POINT ( 'NONE', #64 ) ;
#20 = ORIENTED_EDGE ( 'NONE', *, *, #188, .F. ) ;
#21 = CIRCLE ( 'NONE', #92, 0.6569999999999998064 ) ;
#22 = EDGE_CURVE ( 'NONE', #164, #247, #241, .T. ) ;
#23 = CARTESIAN_POINT ( 'NONE',  ( 0.000000000000000000, 0.000000000000000000, 1.875000000000000000 ) ) ;
#24 = CARTESIAN_POINT ( 'NONE',  ( 0.6569999999999998064, 8.045929470398107546E-17, 2.375000000000000000 ) ) ;
#25 = PLANE ( 'NONE',  #65 ) ;
#26 =( NAMED_UNIT ( * ) SI_UNIT ( $, .STERADIAN. ) SOLID_ANGLE_UNIT ( ) );
#27 = VECTOR ( 'NONE', #146, 39.37007874015748143 ) ;
#28 = DIRECTION ( 'NONE',  ( -1.000000000000000000, 0.000000000000000000, 0.000000000000000000 ) ) ;
#29 = DIRECTION ( 'NONE',  ( -0.000000000000000000, 0.000000000000000000, 1.000000000000000000 ) ) ;
#30 = CARTESIAN_POINT ( 'NONE',  ( 0.000000000000000000, 0.000000000000000000, 2.375000000000000000 ) ) ;
#31 = FACE_OUTER_BOUND ( 'NONE', #245, .T. ) ;
#32 = DIRECTION ( 'NONE',  ( -0.000000000000000000, 0.000000000000000000, 1.000000000000000000 ) ) ;
#33 = CIRCLE ( 'NONE', #107, 0.6569999999999998064 ) ;
#34 = ADVANCED_FACE ( 'NONE', ( #15, #112 ), #5, .T. ) ;
#35 = AXIS2_PLACEMENT_3D ( 'NONE', #186, #29, #37 ) ;
#36 = EDGE_LOOP ( 'NONE', ( #139, #86, #93, #165 ) ) ;
#37 = DIRECTION ( 'NONE',  ( 1.000000000000000000, 0.000000000000000000, 0.000000000000000000 ) ) ;
#38 = AXIS2_PLACEMENT_3D ( 'NONE', #103, #171, #69 ) ;
#39 = ORIENTED_EDGE ( 'NONE', *, *, #253, .T. ) ;
#40 = DIRECTION ( 'NONE',  ( 1.000000000000000000, 0.000000000000000000, 0.000000000000000000 ) ) ;
#41 = ORIENTED_EDGE ( 'NONE', *, *, #235, .F. ) ;
#42 = EDGE_CURVE ( 'NONE', #66, #283, #21, .T. ) ;
#43 = ORIENTED_EDGE ( 'NONE', *, *, #261, .T. ) ;
#44 = ORIENTED_EDGE ( 'NONE', *, *, #253, .F. ) ;
#45 = EDGE_LOOP ( 'NONE', ( #109, #138 ) ) ;
#46 = EDGE_CURVE ( 'NONE', #163, #114, #144, .T. ) ;
#47 = ORIENTED_EDGE ( 'NONE', *, *, #42, .T. ) ;
#48 = ADVANCED_BREP_SHAPE_REPRESENTATION ( 'MS0002', ( #220, #178 ), #231 ) ;
#49 = DIRECTION ( 'NONE',  ( -0.000000000000000000, -0.000000000000000000, -1.000000000000000000 ) ) ;
#50 = DIRECTION ( 'NONE',  ( 1.000000000000000000, 0.000000000000000000, 0.000000000000000000 ) ) ;
#51 =( CONVERSION_BASED_UNIT ( 'INCH', #128 ) LENGTH_UNIT ( ) NAMED_UNIT ( #16 ) );
#52 = CARTESIAN_POINT ( 'NONE',  ( 0.6875000000000000000, 8.419446744138052529E-17, 0.000000000000000000 ) ) ;
#53 = CARTESIAN_POINT ( 'NONE',  ( -0.6875000000000000000, 0.000000000000000000, 1.875000000000000000 ) ) ;
#54 = CARTESIAN_POINT ( 'NONE',  ( 0.000000000000000000, 0.000000000000000000, 2.375000000000000000 ) ) ;
#55 = FACE_OUTER_BOUND ( 'NONE', #115, .T. ) ;
#56 = CYLINDRICAL_SURFACE ( 'NONE', #161, 0.6220472449999999709 ) ;
#57 = CYLINDRICAL_SURFACE ( 'NONE', #116, 0.6569999999999998064 ) ;
#58 = VECTOR ( 'NONE', #201, 39.37007874015748143 ) ;
#59 = CARTESIAN_POINT ( 'NONE',  ( 0.000000000000000000, 0.000000000000000000, 0.000000000000000000 ) ) ;
#60 = UNCERTAINTY_MEASURE_WITH_UNIT (LENGTH_MEASURE( 1.000000000000000082E-05 ), #195, 'distance_accuracy_value', 'NONE');
#61 = ORIENTED_EDGE ( 'NONE', *, *, #134, .T. ) ;
#62 = EDGE_CURVE ( 'NONE', #283, #217, #173, .T. ) ;
#63 = ORIENTED_EDGE ( 'NONE', *, *, #46, .T. ) ;
#64 = CARTESIAN_POINT ( 'NONE',  ( 0.6569999999999998064, 8.045929470398107546E-17, 1.875000000000000000 ) ) ;
#65 = AXIS2_PLACEMENT_3D ( 'NONE', #10, #236, #118 ) ;
#66 = VERTEX_POINT ( 'NONE', #271 ) ;
#67 = PRODUCT_RELATED_PRODUCT_CATEGORY ( 'part', '', ( #197 ) ) ;
#68 = EDGE_LOOP ( 'NONE', ( #221, #39 ) ) ;
#69 = DIRECTION ( 'NONE',  ( 1.000000000000000000, 0.000000000000000000, 0.000000000000000000 ) ) ;
#70 = CIRCLE ( 'NONE', #38, 0.6875000000000000000 ) ;
#71 = PRODUCT_DEFINITION_FORMATION_WITH_SPECIFIED_SOURCE ( 'ANY', '', #197, .NOT_KNOWN. ) ;
#72 = DIRECTION ( 'NONE',  ( -0.000000000000000000, 0.000000000000000000, 1.000000000000000000 ) ) ;
#73 = SURFACE_STYLE_USAGE ( .BOTH. , #198 ) ;
#74 = ADVANCED_FACE ( 'NONE', ( #229 ), #80, .T. ) ;
#75 = CARTESIAN_POINT ( 'NONE',  ( -0.6220472449999999709, 0.000000000000000000, 1.875000000000000000 ) ) ;
#76 = DIRECTION ( 'NONE',  ( -1.000000000000000000, 0.000000000000000000, 0.000000000000000000 ) ) ;
#77 = DIRECTION ( 'NONE',  ( -0.000000000000000000, 0.000000000000000000, 1.000000000000000000 ) ) ;
#78 = AXIS2_PLACEMENT_3D ( 'NONE', #228, #250, #255 ) ;
#79 = CIRCLE ( 'NONE', #192, 0.6220472449999999709 ) ;
#80 = CYLINDRICAL_SURFACE ( 'NONE', #130, 0.6569999999999998064 ) ;
#81 = CARTESIAN_POINT ( 'NONE',  ( -0.6220472449999999709, 0.000000000000000000, 0.000000000000000000 ) ) ;
#82 = DIRECTION ( 'NONE',  ( -0.000000000000000000, 0.000000000000000000, 1.000000000000000000 ) ) ;
#83 = DIRECTION ( 'NONE',  ( 1.000000000000000000, 0.000000000000000000, 0.000000000000000000 ) ) ;
#84 = AXIS2_PLACEMENT_3D ( 'NONE', #194, #251, #270 ) ;
#85 = EDGE_LOOP ( 'NONE', ( #225, #63, #20, #182 ) ) ;
#86 = ORIENTED_EDGE ( 'NONE', *, *, #154, .T. ) ;
#87 = DIRECTION ( 'NONE',  ( 0.000000000000000000, 0.000000000000000000, 1.000000000000000000 ) ) ;
#88 = VECTOR ( 'NONE', #203, 39.37007874015748143 ) ;
#89 = EDGE_CURVE ( 'NONE', #247, #164, #70, .T. ) ;
#90 = DIRECTION ( 'NONE',  ( -0.000000000000000000, 0.000000000000000000, 1.000000000000000000 ) ) ;
#91 = ORIENTED_EDGE ( 'NONE', *, *, #22, .T. ) ;
#92 = AXIS2_PLACEMENT_3D ( 'NONE', #1, #90, #268 ) ;
#93 = ORIENTED_EDGE ( 'NONE', *, *, #105, .F. ) ;
#94 = CARTESIAN_POINT ( 'NONE',  ( 0.000000000000000000, 0.000000000000000000, 2.375000000000000000 ) ) ;
#95 = CARTESIAN_POINT ( 'NONE',  ( -0.6220472449999999709, 0.000000000000000000, 2.375000000000000000 ) ) ;
#96 = PLANE ( 'NONE',  #190 ) ;
#97 = CIRCLE ( 'NONE', #157, 0.6220472449999999709 ) ;
#98 = EDGE_CURVE ( 'NONE', #283, #66, #33, .T. ) ;
#99 = CIRCLE ( 'NONE', #35, 0.6220472449999999709 ) ;
#100 = DIRECTION ( 'NONE',  ( 1.000000000000000000, 0.000000000000000000, 0.000000000000000000 ) ) ;
#101 = DIRECTION ( 'NONE',  ( -0.000000000000000000, -0.000000000000000000, -1.000000000000000000 ) ) ;
#102 = DIRECTION ( 'NONE',  ( -0.000000000000000000, -0.000000000000000000, -1.000000000000000000 ) ) ;
#103 = CARTESIAN_POINT ( 'NONE',  ( 0.000000000000000000, 0.000000000000000000, 1.875000000000000000 ) ) ;
#104 = FILL_AREA_STYLE_COLOUR ( '', #111 ) ;
#105 = EDGE_CURVE ( 'NONE', #217, #19, #282, .T. ) ;
#106 = CARTESIAN_POINT ( 'NONE',  ( 0.6220472449999999709, 7.617881675076794465E-17, 0.000000000000000000 ) ) ;
#107 = AXIS2_PLACEMENT_3D ( 'NONE', #30, #166, #170 ) ;
#108 = DIRECTION ( 'NONE',  ( 1.000000000000000000, 0.000000000000000000, 0.000000000000000000 ) ) ;
#109 = ORIENTED_EDGE ( 'NONE', *, *, #119, .F. ) ;
#110 = ORIENTED_EDGE ( 'NONE', *, *, #154, .F. ) ;
#111 = COLOUR_RGB ( '',0.7921568627450980005, 0.8196078431372548767, 0.9333333333333333481 ) ;
#112 = FACE_OUTER_BOUND ( 'NONE', #180, .T. ) ;
#113 = VERTEX_POINT ( 'NONE', #52 ) ;
#114 = VERTEX_POINT ( 'NONE', #106 ) ;
#115 = EDGE_LOOP ( 'NONE', ( #110, #135, #240, #244 ) ) ;
#116 = AXIS2_PLACEMENT_3D ( 'NONE', #174, #102, #272 ) ;
#117 = EDGE_LOOP ( 'NONE', ( #265, #185 ) ) ;
#118 = DIRECTION ( 'NONE',  ( 1.000000000000000000, 0.000000000000000000, 0.000000000000000000 ) ) ;
#119 = EDGE_CURVE ( 'NONE', #243, #113, #238, .T. ) ;
#120 = CYLINDRICAL_SURFACE ( 'NONE', #147, 0.6875000000000000000 ) ;
#121 = VECTOR ( 'NONE', #7, 39.37007874015748143 ) ;
#122 = FACE_OUTER_BOUND ( 'NONE', #131, .T. ) ;
#123 = CARTESIAN_POINT ( 'NONE',  ( 0.000000000000000000, 0.000000000000000000, 1.875000000000000000 ) ) ;
#124 = FILL_AREA_STYLE ('',( #104 ) ) ;
#125 = CARTESIAN_POINT ( 'NONE',  ( -0.6875000000000000000, 0.000000000000000000, 1.875000000000000000 ) ) ;
#126 = LENGTH_MEASURE_WITH_UNIT ( LENGTH_MEASURE( 0.02539999999999999897 ), #232 );
#127 = CLOSED_SHELL ( 'NONE', ( #74, #6, #129, #162, #142, #156, #177, #281, #34 ) ) ;
#128 = LENGTH_MEASURE_WITH_UNIT ( LENGTH_MEASURE( 0.02539999999999999897 ), #237 );
#129 = ADVANCED_FACE ( 'NONE', ( #189 ), #213, .T. ) ;
#130 = AXIS2_PLACEMENT_3D ( 'NONE', #54, #233, #76 ) ;
#131 = EDGE_LOOP ( 'NONE', ( #91, #159 ) ) ;
#132 = APPLICATION_PROTOCOL_DEFINITION ( 'draft international standard', 'automotive_design', 1998, #169 ) ;
#133 = DIMENSIONAL_EXPONENTS ( 1.000000000000000000, 0.000000000000000000, 0.000000000000000000, 0.000000000000000000, 0.000000000000000000, 0.000000000000000000, 0.000000000000000000 ) ;
#134 = EDGE_CURVE ( 'NONE', #137, #264, #11, .T. ) ;
#135 = ORIENTED_EDGE ( 'NONE', *, *, #98, .F. ) ;
#136 =( GEOMETRIC_REPRESENTATION_CONTEXT ( 3 ) GLOBAL_UNCERTAINTY_ASSIGNED_CONTEXT ( ( #60 ) ) GLOBAL_UNIT_ASSIGNED_CONTEXT ( ( #195, #8, #152 ) ) REPRESENTATION_CONTEXT ( 'NONE', 'WORKASPACE' ) );
#137 = VERTEX_POINT ( 'NONE', #95 ) ;
#138 = ORIENTED_EDGE ( 'NONE', *, *, #261, .F. ) ;
#139 = ORIENTED_EDGE ( 'NONE', *, *, #42, .F. ) ;
#140 = AXIS2_PLACEMENT_3D ( 'NONE', #175, #13, #100 ) ;
#141 = EDGE_LOOP ( 'NONE', ( #246, #41 ) ) ;
#142 = ADVANCED_FACE ( 'NONE', ( #211 ), #56, .F. ) ;
#143 = FACE_OUTER_BOUND ( 'NONE', #45, .T. ) ;
#144 = LINE ( 'NONE', #149, #121 ) ;
#145 =( NAMED_UNIT ( * ) PLANE_ANGLE_UNIT ( ) SI_UNIT ( $, .RADIAN. ) );
#146 = DIRECTION ( 'NONE',  ( -0.000000000000000000, -0.000000000000000000, -1.000000000000000000 ) ) ;
#147 = AXIS2_PLACEMENT_3D ( 'NONE', #252, #49, #215 ) ;
#148 = DIRECTION ( 'NONE',  ( -0.000000000000000000, 0.000000000000000000, 1.000000000000000000 ) ) ;
#149 = CARTESIAN_POINT ( 'NONE',  ( 0.6220472449999999709, 7.617881675076794465E-17, 1.875000000000000000 ) ) ;
#150 = FACE_BOUND ( 'NONE', #117, .T. ) ;
#151 = CARTESIAN_POINT ( 'NONE',  ( -0.6569999999999998064, 0.000000000000000000, 2.375000000000000000 ) ) ;
#152 =( NAMED_UNIT ( * ) SI_UNIT ( $, .STERADIAN. ) SOLID_ANGLE_UNIT ( ) );
#153 = STYLED_ITEM ( 'NONE', ( #193 ), #220 ) ;
#154 = EDGE_CURVE ( 'NONE', #66, #19, #249, .T. ) ;
#155 = ORIENTED_EDGE ( 'NONE', *, *, #214, .T. ) ;
#156 = ADVANCED_FACE ( 'NONE', ( #150, #122 ), #25, .T. ) ;
#157 = AXIS2_PLACEMENT_3D ( 'NONE', #279, #82, #108 ) ;
#158 = MECHANICAL_DESIGN_GEOMETRIC_PRESENTATION_REPRESENTATION (  '', ( #153 ), #136 ) ;
#159 = ORIENTED_EDGE ( 'NONE', *, *, #89, .T. ) ;
#160 = ORIENTED_EDGE ( 'NONE', *, *, #235, .T. ) ;
#161 = AXIS2_PLACEMENT_3D ( 'NONE', #209, #101, #199 ) ;
#162 = ADVANCED_FACE ( 'NONE', ( #31 ), #120, .T. ) ;
#163 = VERTEX_POINT ( 'NONE', #196 ) ;
#164 = VERTEX_POINT ( 'NONE', #125 ) ;
#165 = ORIENTED_EDGE ( 'NONE', *, *, #62, .F. ) ;
#166 = DIRECTION ( 'NONE',  ( -0.000000000000000000, 0.000000000000000000, 1.000000000000000000 ) ) ;
#167 = AXIS2_PLACEMENT_3D ( 'NONE', #254, #148, #239 ) ;
#168 = DIRECTION ( 'NONE',  ( -0.000000000000000000, -0.000000000000000000, -1.000000000000000000 ) ) ;
#169 = APPLICATION_CONTEXT ( 'automotive_design' ) ;
#170 = DIRECTION ( 'NONE',  ( 1.000000000000000000, 0.000000000000000000, 0.000000000000000000 ) ) ;
#171 = DIRECTION ( 'NONE',  ( -0.000000000000000000, 0.000000000000000000, 1.000000000000000000 ) ) ;
#172 = DIRECTION ( 'NONE',  ( 1.000000000000000000, 0.000000000000000000, 0.000000000000000000 ) ) ;
#173 = LINE ( 'NONE', #276, #216 ) ;
#174 = CARTESIAN_POINT ( 'NONE',  ( 0.000000000000000000, 0.000000000000000000, 2.375000000000000000 ) ) ;
#175 = CARTESIAN_POINT ( 'NONE',  ( 0.000000000000000000, 0.000000000000000000, 1.875000000000000000 ) ) ;
#176 = CARTESIAN_POINT ( 'NONE',  ( 0.000000000000000000, 0.000000000000000000, 0.000000000000000000 ) ) ;
#177 = ADVANCED_FACE ( 'NONE', ( #143, #273 ), #96, .F. ) ;
#178 = AXIS2_PLACEMENT_3D ( 'NONE', #59, #87, #40 ) ;
#179 = ORIENTED_EDGE ( 'NONE', *, *, #184, .F. ) ;
#180 = EDGE_LOOP ( 'NONE', ( #227, #47 ) ) ;
#181 = PRODUCT_CONTEXT ( 'NONE', #169, 'mechanical' ) ;
#182 = ORIENTED_EDGE ( 'NONE', *, *, #134, .F. ) ;
#183 = ORIENTED_EDGE ( 'NONE', *, *, #46, .F. ) ;
#184 = EDGE_CURVE ( 'NONE', #247, #113, #210, .T. ) ;
#185 = ORIENTED_EDGE ( 'NONE', *, *, #202, .T. ) ;
#186 = CARTESIAN_POINT ( 'NONE',  ( 0.000000000000000000, 0.000000000000000000, 2.375000000000000000 ) ) ;
#187 = DIRECTION ( 'NONE',  ( -0.000000000000000000, 0.000000000000000000, 1.000000000000000000 ) ) ;
#188 = EDGE_CURVE ( 'NONE', #264, #114, #97, .T. ) ;
#189 = FACE_OUTER_BOUND ( 'NONE', #206, .T. ) ;
#190 = AXIS2_PLACEMENT_3D ( 'NONE', #191, #72, #50 ) ;
#191 = CARTESIAN_POINT ( 'NONE',  ( 0.000000000000000000, 0.000000000000000000, 0.000000000000000000 ) ) ;
#192 = AXIS2_PLACEMENT_3D ( 'NONE', #274, #32, #83 ) ;
#193 = PRESENTATION_STYLE_ASSIGNMENT (( #73 ) ) ;
#194 = CARTESIAN_POINT ( 'NONE',  ( 0.000000000000000000, 0.000000000000000000, 1.875000000000000000 ) ) ;
#195 =( CONVERSION_BASED_UNIT ( 'INCH', #126 ) LENGTH_UNIT ( ) NAMED_UNIT ( #133 ) );
#196 = CARTESIAN_POINT ( 'NONE',  ( 0.6220472449999999709, 7.617881675076794465E-17, 2.375000000000000000 ) ) ;
#197 = PRODUCT ( 'MS0002', 'MS0002', '', ( #181 ) ) ;
#198 = SURFACE_SIDE_STYLE ('',( #256 ) ) ;
#199 = DIRECTION ( 'NONE',  ( -1.000000000000000000, 0.000000000000000000, 0.000000000000000000 ) ) ;
#200 = AXIS2_PLACEMENT_3D ( 'NONE', #123, #269, #28 ) ;
#201 = DIRECTION ( 'NONE',  ( -0.000000000000000000, -0.000000000000000000, -1.000000000000000000 ) ) ;
#202 = EDGE_CURVE ( 'NONE', #19, #217, #260, .T. ) ;
#203 = DIRECTION ( 'NONE',  ( -0.000000000000000000, -0.000000000000000000, -1.000000000000000000 ) ) ;
#204 = DIRECTION ( 'NONE',  ( 1.000000000000000000, 0.000000000000000000, 0.000000000000000000 ) ) ;
#205 = ORIENTED_EDGE ( 'NONE', *, *, #214, .F. ) ;
#206 = EDGE_LOOP ( 'NONE', ( #14, #4, #43, #205 ) ) ;
#207 = DIRECTION ( 'NONE',  ( -0.000000000000000000, -0.000000000000000000, -1.000000000000000000 ) ) ;
#208 = DIRECTION ( 'NONE',  ( 1.000000000000000000, 0.000000000000000000, 0.000000000000000000 ) ) ;
#209 = CARTESIAN_POINT ( 'NONE',  ( 0.000000000000000000, 0.000000000000000000, 1.875000000000000000 ) ) ;
#210 = LINE ( 'NONE', #9, #58 ) ;
#211 = FACE_OUTER_BOUND ( 'NONE', #263, .T. ) ;
#212 = PRODUCT_DEFINITION_CONTEXT ( 'detailed design', #266, 'design' ) ;
#213 = CYLINDRICAL_SURFACE ( 'NONE', #200, 0.6875000000000000000 ) ;
#214 = EDGE_CURVE ( 'NONE', #164, #243, #280, .T. ) ;
#215 = DIRECTION ( 'NONE',  ( -1.000000000000000000, 0.000000000000000000, 0.000000000000000000 ) ) ;
#216 = VECTOR ( 'NONE', #230, 39.37007874015748143 ) ;
#217 = VERTEX_POINT ( 'NONE', #277 ) ;
#218 = AXIS2_PLACEMENT_3D ( 'NONE', #23, #207, #17 ) ;
#219 = APPLICATION_PROTOCOL_DEFINITION ( 'draft international standard', 'automotive_design', 1998, #266 ) ;
#220 = MANIFOLD_SOLID_BREP ( 'Boss-Extrude2', #127 ) ;
#221 = ORIENTED_EDGE ( 'NONE', *, *, #188, .T. ) ;
#222 = CIRCLE ( 'NONE', #167, 0.6875000000000000000 ) ;
#223 = FACE_OUTER_BOUND ( 'NONE', #85, .T. ) ;
#224 = CYLINDRICAL_SURFACE ( 'NONE', #218, 0.6220472449999999709 ) ;
#225 = ORIENTED_EDGE ( 'NONE', *, *, #285, .T. ) ;
#226 = AXIS2_PLACEMENT_3D ( 'NONE', #2, #267, #208 ) ;
#227 = ORIENTED_EDGE ( 'NONE', *, *, #98, .T. ) ;
#228 = CARTESIAN_POINT ( 'NONE',  ( 0.000000000000000000, 0.000000000000000000, 0.000000000000000000 ) ) ;
#229 = FACE_OUTER_BOUND ( 'NONE', #36, .T. ) ;
#230 = DIRECTION ( 'NONE',  ( -0.000000000000000000, -0.000000000000000000, -1.000000000000000000 ) ) ;
#231 =( GEOMETRIC_REPRESENTATION_CONTEXT ( 3 ) GLOBAL_UNCERTAINTY_ASSIGNED_CONTEXT ( ( #12 ) ) GLOBAL_UNIT_ASSIGNED_CONTEXT ( ( #51, #145, #26 ) ) REPRESENTATION_CONTEXT ( 'NONE', 'WORKASPACE' ) );
#232 =( LENGTH_UNIT ( ) NAMED_UNIT ( * ) SI_UNIT ( $, .METRE. ) );
#233 = DIRECTION ( 'NONE',  ( -0.000000000000000000, -0.000000000000000000, -1.000000000000000000 ) ) ;
#234 = CARTESIAN_POINT ( 'NONE',  ( 0.6875000000000000000, 8.419446744138052529E-17, 1.875000000000000000 ) ) ;
#235 = EDGE_CURVE ( 'NONE', #163, #137, #79, .T. ) ;
#236 = DIRECTION ( 'NONE',  ( -0.000000000000000000, 0.000000000000000000, 1.000000000000000000 ) ) ;
#237 =( LENGTH_UNIT ( ) NAMED_UNIT ( * ) SI_UNIT ( $, .METRE. ) );
#238 = CIRCLE ( 'NONE', #78, 0.6875000000000000000 ) ;
#239 = DIRECTION ( 'NONE',  ( 1.000000000000000000, 0.000000000000000000, 0.000000000000000000 ) ) ;
#240 = ORIENTED_EDGE ( 'NONE', *, *, #62, .T. ) ;
#241 = CIRCLE ( 'NONE', #226, 0.6875000000000000000 ) ;
#242 = CIRCLE ( 'NONE', #284, 0.6220472449999999709 ) ;
#243 = VERTEX_POINT ( 'NONE', #257 ) ;
#244 = ORIENTED_EDGE ( 'NONE', *, *, #202, .F. ) ;
#245 = EDGE_LOOP ( 'NONE', ( #179, #3, #155, #259 ) ) ;
#246 = ORIENTED_EDGE ( 'NONE', *, *, #285, .F. ) ;
#247 = VERTEX_POINT ( 'NONE', #234 ) ;
#248 = AXIS2_PLACEMENT_3D ( 'NONE', #94, #187, #204 ) ;
#249 = LINE ( 'NONE', #24, #27 ) ;
#250 = DIRECTION ( 'NONE',  ( -0.000000000000000000, 0.000000000000000000, 1.000000000000000000 ) ) ;
#251 = DIRECTION ( 'NONE',  ( 0.000000000000000000, -0.000000000000000000, -1.000000000000000000 ) ) ;
#252 = CARTESIAN_POINT ( 'NONE',  ( 0.000000000000000000, 0.000000000000000000, 1.875000000000000000 ) ) ;
#253 = EDGE_CURVE ( 'NONE', #114, #264, #242, .T. ) ;
#254 = CARTESIAN_POINT ( 'NONE',  ( 0.000000000000000000, 0.000000000000000000, 0.000000000000000000 ) ) ;
#255 = DIRECTION ( 'NONE',  ( 1.000000000000000000, 0.000000000000000000, 0.000000000000000000 ) ) ;
#256 = SURFACE_STYLE_FILL_AREA ( #124 ) ;
#257 = CARTESIAN_POINT ( 'NONE',  ( -0.6875000000000000000, 0.000000000000000000, 0.000000000000000000 ) ) ;
#258 = PRESENTATION_LAYER_ASSIGNMENT (  '', '', ( #153 ) ) ;
#259 = ORIENTED_EDGE ( 'NONE', *, *, #119, .T. ) ;
#260 = CIRCLE ( 'NONE', #140, 0.6569999999999998064 ) ;
#261 = EDGE_CURVE ( 'NONE', #113, #243, #222, .T. ) ;
#262 = SHAPE_DEFINITION_REPRESENTATION ( #278, #48 ) ;
#263 = EDGE_LOOP ( 'NONE', ( #183, #160, #61, #44 ) ) ;
#264 = VERTEX_POINT ( 'NONE', #81 ) ;
#265 = ORIENTED_EDGE ( 'NONE', *, *, #105, .T. ) ;
#266 = APPLICATION_CONTEXT ( 'automotive_design' ) ;
#267 = DIRECTION ( 'NONE',  ( -0.000000000000000000, 0.000000000000000000, 1.000000000000000000 ) ) ;
#268 = DIRECTION ( 'NONE',  ( 1.000000000000000000, 0.000000000000000000, 0.000000000000000000 ) ) ;
#269 = DIRECTION ( 'NONE',  ( -0.000000000000000000, -0.000000000000000000, -1.000000000000000000 ) ) ;
#270 = DIRECTION ( 'NONE',  ( 1.000000000000000000, 0.000000000000000000, 0.000000000000000000 ) ) ;
#271 = CARTESIAN_POINT ( 'NONE',  ( 0.6569999999999998064, 8.045929470398107546E-17, 2.375000000000000000 ) ) ;
#272 = DIRECTION ( 'NONE',  ( -1.000000000000000000, 0.000000000000000000, 0.000000000000000000 ) ) ;
#273 = FACE_BOUND ( 'NONE', #68, .T. ) ;
#274 = CARTESIAN_POINT ( 'NONE',  ( 0.000000000000000000, 0.000000000000000000, 2.375000000000000000 ) ) ;
#275 = VECTOR ( 'NONE', #168, 39.37007874015748143 ) ;
#276 = CARTESIAN_POINT ( 'NONE',  ( -0.6569999999999998064, 0.000000000000000000, 2.375000000000000000 ) ) ;
#277 = CARTESIAN_POINT ( 'NONE',  ( -0.6569999999999998064, 0.000000000000000000, 1.875000000000000000 ) ) ;
#278 = PRODUCT_DEFINITION_SHAPE ( 'NONE', 'NONE',  #18 ) ;
#279 = CARTESIAN_POINT ( 'NONE',  ( 0.000000000000000000, 0.000000000000000000, 0.000000000000000000 ) ) ;
#280 = LINE ( 'NONE', #53, #88 ) ;
#281 = ADVANCED_FACE ( 'NONE', ( #55 ), #57, .T. ) ;
#282 = CIRCLE ( 'NONE', #84, 0.6569999999999998064 ) ;
#283 = VERTEX_POINT ( 'NONE', #151 ) ;
#284 = AXIS2_PLACEMENT_3D ( 'NONE', #176, #77, #172 ) ;
#285 = EDGE_CURVE ( 'NONE', #137, #163, #99, .T. ) ;
ENDSEC;
END-ISO-10303-21;
