ISO-10303-21;
HEADER;
FILE_DESCRIPTION (( 'STEP AP214' ),
    '1' );
FILE_NAME ('CS0008.STEP',
    '2013-09-09T16:24:12',
    ( '' ),
    ( '' ),
    'SwSTEP 2.0',
    'SolidWorks 2012',
    '' );
FILE_SCHEMA (( 'AUTOMOTIVE_DESIGN' ));
ENDSEC;

DATA;
#1 = CARTESIAN_POINT ( 'NONE',  ( 0.09094625108259883600, 0.2668957455543794500, -0.1640419718544294200 ) ) ;
#2 = CARTESIAN_POINT ( 'NONE',  ( 0.09070580740048128600, 0.2259375258150702900, -0.1640099258141354800 ) ) ;
#3 = CARTESIAN_POINT ( 'NONE',  ( 0.08956689145591512100, 0.2053721957815009500, -0.1638554926562518200 ) ) ;
#4 = CARTESIAN_POINT ( 'NONE',  ( 0.08503770379057376500, 0.1642586188217461400, -0.1632756590600102100 ) ) ;
#5 = CARTESIAN_POINT ( 'NONE',  ( 0.01887195308731508600, 0.4821958059122609100, -0.1581952460457633500 ) ) ;
#6 = CARTESIAN_POINT ( 'NONE',  ( 0.05697012682041485700, 0.4372451998217379800, -0.1603534720502251300 ) ) ;
#7 = CARTESIAN_POINT ( 'NONE',  ( -0.02225575581625841000, 0.01490856483037086500, -0.1583603261832081400 ) ) ;
#8 = CARTESIAN_POINT ( 'NONE',  ( 0.02823023858556648900, 0.4801769959869360800, -0.1585798418816042100 ) ) ;
#9 = CARTESIAN_POINT ( 'NONE',  ( -0.01887853872120951600, 0.4821943852306955200, -0.1581955166944707700 ) ) ;
#10 = CARTESIAN_POINT ( 'NONE',  ( -0.02823023858595221200, 0.4801769959865784300, -0.1585798418816199700 ) ) ;
#11 = CARTESIAN_POINT ( 'NONE',  ( -0.02225575581625841000, 0.01490856483037086500, -0.1583603261832081400 ) ) ;
#12 = CARTESIAN_POINT ( 'NONE',  ( -0.007418585272093930800, 0.01336422793476851900, -0.1578797653056781000 ) ) ;
#13 = CARTESIAN_POINT ( 'NONE',  ( -0.009494069654900353500, 0.4832445323802035400, -0.1580010217434005000 ) ) ;
#14 = CARTESIAN_POINT ( 'NONE',  ( 0.009345512234804112200, 0.4832554246748073100, -0.1579989862818022000 ) ) ;
#15 = CARTESIAN_POINT ( 'NONE',  ( 0.08168445754390732400, 0.1438883845177050300, -0.1628530746192022900 ) ) ;
#16 = CARTESIAN_POINT ( 'NONE',  ( 0.007418585272070532900, 0.01336422793476757900, -0.1578797653056778500 ) ) ;
#17 = CARTESIAN_POINT ( 'NONE',  ( -0.02646149288100594500, 0.01793546418707615500, -0.1584965457331877800 ) ) ;
#18 = CARTESIAN_POINT ( 'NONE',  ( 0.02823023858556648900, 0.4801769959869360800, -0.1585798418816042100 ) ) ;
#19 = CARTESIAN_POINT ( 'NONE',  ( 0.02225575581623525200, 0.01490856483035457800, -0.1583603261832075300 ) ) ;
#20 = CARTESIAN_POINT ( 'NONE',  ( -0.03715519347371979600, 0.02933264396870011900, -0.1589960910514216800 ) ) ;
#21 = CARTESIAN_POINT ( 'NONE',  ( -0.03027134360260721300, 0.02156944107076088800, -0.1586581177882057400 ) ) ;
#22 = CARTESIAN_POINT ( 'NONE',  ( 0.0000000000000000000, 0.01490856483035486900, 0.0000000000000000000 ) ) ;
#23 = DIRECTION ( 'NONE',  ( -0.0000000000000000000, 1.000000000000000000, -0.0000000000000000000 ) ) ;
#24 = CARTESIAN_POINT ( 'NONE',  ( -0.04024395402007206100, 0.03346915080972320100, -0.1591729101563957000 ) ) ;
#25 = CARTESIAN_POINT ( 'NONE',  ( 0.0000000000000000000, 0.4801769959869358600, 0.0000000000000000000 ) ) ;
#26 = DIRECTION ( 'NONE',  ( 0.0000000000000000000, -1.000000000000000000, 0.0000000000000000000 ) ) ;
#27 = DIRECTION ( 'NONE',  ( 0.0000000000000000000, 0.0000000000000000000, -1.000000000000000000 ) ) ;
#28 = CARTESIAN_POINT ( 'NONE',  ( 0.06858588973761620100, 0.4086730530889540700, -0.1613854875277359000 ) ) ;
#29 = CARTESIAN_POINT ( 'NONE',  ( 0.06612722977960626400, 0.08391000679561158600, -0.1611363219873963900 ) ) ;
#30 = CARTESIAN_POINT ( 'NONE',  ( -0.08955869475522498800, 0.2053086985165752100, -0.1638544553677170900 ) ) ;
#31 = FILL_AREA_STYLE ('',( #44 ) ) ;
#32 = CARTESIAN_POINT ( 'NONE',  ( 0.08610587051503104700, 0.3280571696667479200, -0.1634105758163745800 ) ) ;
#33 = CARTESIAN_POINT ( 'NONE',  ( -0.08613746236646413500, 0.3278272352830793900, -0.1634145832787884700 ) ) ;
#34 = CARTESIAN_POINT ( 'NONE',  ( 0.07424760705560659600, 0.3888472249794540600, -0.1620065675447957500 ) ) ;
#35 = CARTESIAN_POINT ( 'NONE',  ( 0.07216851102327720400, 0.1036269968000615300, -0.1617815774364553300 ) ) ;
#36 = CARTESIAN_POINT ( 'NONE',  ( 0.05360349109756551400, 0.05563020896990075000, -0.1600800799382402500 ) ) ;
#37 = CARTESIAN_POINT ( 'NONE',  ( -0.05363776520734426400, 0.05569392337641469000, -0.1600826482690300100 ) ) ;
#38 = DIRECTION ( 'NONE',  ( -0.0000000000000000000, 1.000000000000000000, -0.0000000000000000000 ) ) ;
#39 = DIRECTION ( 'NONE',  ( 0.0000000000000000000, 0.0000000000000000000, 1.000000000000000000 ) ) ;
#40 = CARTESIAN_POINT ( 'NONE',  ( -0.07427858159634034800, 0.3887232383015598600, -0.1620100159189350500 ) ) ;
#41 = CARTESIAN_POINT ( 'NONE',  ( -0.07221203578108319200, 0.1037971495795330100, -0.1617863676008780800 ) ) ;
#42 = CARTESIAN_POINT ( 'NONE',  ( -0.04881779338551180100, 0.04637876336647610300, -0.1597114951368665800 ) ) ;
#43 = CARTESIAN_POINT ( 'NONE',  ( -0.08505308167614286700, 0.1643873204631101600, -0.1632776157141335700 ) ) ;
#44 = FILL_AREA_STYLE_COLOUR ( '', #204 ) ;
#45 = CARTESIAN_POINT ( 'NONE',  ( -0.08167257030044645900, 0.1438521350034337200, -0.1628518472151494500 ) ) ;
#46 = CARTESIAN_POINT ( 'NONE',  ( -0.03550930899145339500, 0.4726568300668717600, -0.1589104717196866400 ) ) ;
#47 = CARTESIAN_POINT ( 'NONE',  ( -0.06621654306894403400, 0.08413930341146223800, -0.1611445053443983600 ) ) ;
#48 = CARTESIAN_POINT ( 'NONE',  ( 0.04879840365142136500, 0.04634813263285966800, -0.1597102286199956200 ) ) ;
#49 = CARTESIAN_POINT ( 'NONE',  ( 0.0000000000000000000, 0.5000000000000001100, 0.0000000000000000000 ) ) ;
#50 = CARTESIAN_POINT ( 'NONE',  ( -0.09006867968735710100, 0.2870281954303511900, -0.1639225568095294700 ) ) ;
#51 = CARTESIAN_POINT ( 'NONE',  ( -0.09069686366550200300, 0.2257532406184784300, -0.1640087340756196700 ) ) ;
#52 = CARTESIAN_POINT ( 'NONE',  ( -0.03205594015952455100, 0.4766302380922565200, -0.1587370660755880500 ) ) ;
#53 = DIRECTION ( 'NONE',  ( 0.0000000000000000000, 0.0000000000000000000, 1.000000000000000000 ) ) ;
#54 = DIRECTION ( 'NONE',  ( -0.0000000000000000000, 1.000000000000000000, -0.0000000000000000000 ) ) ;
#55 = CARTESIAN_POINT ( 'NONE',  ( 0.03593051610704354300, 0.4730381694051593000, -0.1588962988512203400 ) ) ;
#56 = CARTESIAN_POINT ( 'NONE',  ( 0.09004979302632203100, 0.2873208898899201600, -0.1639200426243318800 ) ) ;
#57 = CARTESIAN_POINT ( 'NONE',  ( 0.04195112128722527900, 0.4645712233855299700, -0.1592604732887586100 ) ) ;
#58 = CARTESIAN_POINT ( 'NONE',  ( 0.02648273774551733800, 0.01795075426941581900, -0.1584972338327557700 ) ) ;
#59 = CARTESIAN_POINT ( 'NONE',  ( -0.08307838049830694500, 0.3483253897705030400, -0.1630237376165548100 ) ) ;
#60 = CARTESIAN_POINT ( 'NONE',  ( 0.02225575581623525200, 0.01490856483035457800, -0.1583603261832075300 ) ) ;
#61 = CARTESIAN_POINT ( 'NONE',  ( 0.03716359398159408600, 0.02934429434572155900, -0.1589965877435539900 ) ) ;
#62 = CARTESIAN_POINT ( 'NONE',  ( 0.05257198677812495400, 0.4465885534528181200, -0.1599923262250635100 ) ) ;
#63 = CARTESIAN_POINT ( 'NONE',  ( -0.02823023858595221200, 0.4801769959865784300, -0.1585798418816199700 ) ) ;
#64 = DIRECTION ( 'NONE',  ( 0.0000000000000000000, 0.0000000000000000000, 1.000000000000000000 ) ) ;
#65 = CARTESIAN_POINT ( 'NONE',  ( -0.09095236375802559500, 0.2666129963259139000, -0.1640427862757626900 ) ) ;
#66 = CARTESIAN_POINT ( 'NONE',  ( 0.04024492370189029800, 0.03347132978175013800, -0.1591729953598501100 ) ) ;
#67 = DIRECTION ( 'NONE',  ( -0.0000000000000000000, -1.000000000000000000, -0.0000000000000000000 ) ) ;
#68 = CARTESIAN_POINT ( 'NONE',  ( -0.04461438446155909000, 0.4600608508134806400, -0.1594440247079030600 ) ) ;
#69 = CARTESIAN_POINT ( 'NONE',  ( -0.05252977666580591800, 0.4466621773388880200, -0.1599893504088087100 ) ) ;
#70 = CARTESIAN_POINT ( 'NONE',  ( -0.04177358213716541500, 0.4643905079967110000, -0.1592631172804370400 ) ) ;
#71 = CARTESIAN_POINT ( 'NONE',  ( 0.0000000000000000000, 0.0000000000000000000, 0.0000000000000000000 ) ) ;
#72 = DIRECTION ( 'NONE',  ( 0.0000000000000000000, 0.0000000000000000000, 1.000000000000000000 ) ) ;
#73 = CARTESIAN_POINT ( 'NONE',  ( 0.0000000000000000000, 0.0000000000000000000, 0.0000000000000000000 ) ) ;
#74 = CARTESIAN_POINT ( 'NONE',  ( 0.03029648069750976200, 0.02159562304294350100, -0.1586592680870492200 ) ) ;
#75 = CARTESIAN_POINT ( 'NONE',  ( -0.05699296364713442300, 0.4371979660185655300, -0.1603553121185743400 ) ) ;
#76 = CARTESIAN_POINT ( 'NONE',  ( 0.08307281879113405400, 0.3483690573247961200, -0.1630229775728885600 ) ) ;
#77 = CARTESIAN_POINT ( 'NONE',  ( 0.0000000000000000000, 0.2499999999999998900, 0.0000000000000000000 ) ) ;
#78 = CARTESIAN_POINT ( 'NONE',  ( -0.06863981702696637900, 0.4085224097859553300, -0.1613906589819256200 ) ) ;
#79 = PRODUCT ( 'CS0008', 'CS0008', '', ( #179 ) ) ;
#80 = AXIS2_PLACEMENT_3D ( 'NONE', #77, #132, #148 ) ;
#81 = AXIS2_PLACEMENT_3D ( 'NONE', #49, #54, #39 ) ;
#82 = PRESENTATION_LAYER_ASSIGNMENT (  '', '', ( #86 ) ) ;
#83 = MECHANICAL_DESIGN_GEOMETRIC_PRESENTATION_REPRESENTATION (  '', ( #86 ), #84 ) ;
#84 =( GEOMETRIC_REPRESENTATION_CONTEXT ( 3 ) GLOBAL_UNCERTAINTY_ASSIGNED_CONTEXT ( ( #268 ) ) GLOBAL_UNIT_ASSIGNED_CONTEXT ( ( #172, #173, #176 ) ) REPRESENTATION_CONTEXT ( 'NONE', 'WORKASPACE' ) );
#85 = AXIS2_PLACEMENT_3D ( 'NONE', #174, #177, #178 ) ;
#86 = STYLED_ITEM ( 'NONE', ( #252 ), #269 ) ;
#87 = AXIS2_PLACEMENT_3D ( 'NONE', #25, #26, #27 ) ;
#88 = AXIS2_PLACEMENT_3D ( 'NONE', #159, #124, #162 ) ;
#89 = EDGE_CURVE ( 'NONE', #209, #205, #118, .T. ) ;
#90 = EDGE_CURVE ( 'NONE', #227, #222, #120, .T. ) ;
#91 = AXIS2_PLACEMENT_3D ( 'NONE', #73, #67, #64 ) ;
#92 = EDGE_CURVE ( 'NONE', #222, #209, #122, .T. ) ;
#93 = STYLED_ITEM ( 'NONE', ( #196 ), #116 ) ;
#94 =( GEOMETRIC_REPRESENTATION_CONTEXT ( 3 ) GLOBAL_UNCERTAINTY_ASSIGNED_CONTEXT ( ( #117 ) ) GLOBAL_UNIT_ASSIGNED_CONTEXT ( ( #134, #167, #165 ) ) REPRESENTATION_CONTEXT ( 'NONE', 'WORKASPACE' ) );
#95 = AXIS2_PLACEMENT_3D ( 'NONE', #140, #158, #143 ) ;
#96 =( GEOMETRIC_REPRESENTATION_CONTEXT ( 3 ) GLOBAL_UNCERTAINTY_ASSIGNED_CONTEXT ( ( #119 ) ) GLOBAL_UNIT_ASSIGNED_CONTEXT ( ( #144, #156, #138 ) ) REPRESENTATION_CONTEXT ( 'NONE', 'WORKASPACE' ) );
#97 = AXIS2_PLACEMENT_3D ( 'NONE', #149, #153, #164 ) ;
#98 = AXIS2_PLACEMENT_3D ( 'NONE', #147, #123, #160 ) ;
#99 = AXIS2_PLACEMENT_3D ( 'NONE', #71, #38, #53 ) ;
#100 = EDGE_CURVE ( 'NONE', #222, #227, #228, .T. ) ;
#101 = MECHANICAL_DESIGN_GEOMETRIC_PRESENTATION_REPRESENTATION (  '', ( #93 ), #96 ) ;
#102 = AXIS2_PLACEMENT_3D ( 'NONE', #22, #23, #72 ) ;
#103 = EDGE_CURVE ( 'NONE', #205, #209, #219, .T. ) ;
#104 = AXIS2_PLACEMENT_3D ( 'NONE', #127, #126, #125 ) ;
#105 = PRESENTATION_LAYER_ASSIGNMENT (  '', '', ( #93 ) ) ;
#106 = AXIS2_PLACEMENT_3D ( 'NONE', #139, #151, #161 ) ;
#107 = AXIS2_PLACEMENT_3D ( 'NONE', #141, #150, #146 ) ;
#108 = EDGE_CURVE ( 'NONE', #207, #207, #202, .T. ) ;
#109 = EDGE_CURVE ( 'NONE', #205, #227, #121, .T. ) ;
#110 = EDGE_CURVE ( 'NONE', #192, #192, #206, .T. ) ;
#111 = EDGE_CURVE ( 'NONE', #245, #245, #208, .T. ) ;
#112 = EDGE_CURVE ( 'NONE', #211, #211, #186, .T. ) ;
#113 = PRODUCT_DEFINITION_FORMATION_WITH_SPECIFIED_SOURCE ( 'ANY', '', #79, .NOT_KNOWN. ) ;
#114 = PRODUCT_RELATED_PRODUCT_CATEGORY ( 'part', '', ( #79 ) ) ;
#115 = PRODUCT_DEFINITION ( 'UNKNOWN', '', #113, #256 ) ;
#116 = MANIFOLD_SOLID_BREP ( 'Chamfer8', #203 ) ;
#117 = UNCERTAINTY_MEASURE_WITH_UNIT (LENGTH_MEASURE( 1.000000000000000100E-005 ), #134, 'distance_accuracy_value', 'NONE');
#118 = B_SPLINE_CURVE_WITH_KNOTS ( 'NONE', 3,
 ( #10, #9, #13, #14, #5, #8 ),
 .UNSPECIFIED., .F., .F.,
 ( 4, 2, 4 ),
 ( 1.592078309038891400E-014, 0.0007174057541946743300, 0.001434811508373428000 ),
 .UNSPECIFIED. ) ;
#119 = UNCERTAINTY_MEASURE_WITH_UNIT (LENGTH_MEASURE( 1.000000000000000100E-005 ), #144, 'distance_accuracy_value', 'NONE');
#120 = B_SPLINE_CURVE_WITH_KNOTS ( 'NONE', 3,
 ( #19, #16, #12, #7 ),
 .UNSPECIFIED., .F., .F.,
 ( 4, 4 ),
 ( 5.204170427930421300E-018, 0.001130592395465333800 ),
 .UNSPECIFIED. ) ;
#121 = B_SPLINE_CURVE_WITH_KNOTS ( 'NONE', 3,
 ( #18, #55, #57, #62, #6, #28, #34, #76, #32, #56, #1, #2, #3, #4, #15, #35, #29, #36, #48, #66, #61, #74, #58, #60 ),
 .UNSPECIFIED., .F., .F.,
 ( 4, 2, 2, 2, 2, 2, 2, 2, 2, 2, 2, 4 ),
 ( 0.01276510019985787100, 0.01354873159453350000, 0.01433236298920913100, 0.01589962577856039000, 0.01746688856791164800, 0.01903415135726290600, 0.02060141414661416700, 0.02216867693596542500, 0.02373593972531668600, 0.02451957111999231500, 0.02491138681733012800, 0.02530320251466794400 ),
 .UNSPECIFIED. ) ;
#122 = B_SPLINE_CURVE_WITH_KNOTS ( 'NONE', 3,
 ( #11, #17, #21, #20, #24, #42, #37, #47, #41, #45, #43, #30, #51, #65, #50, #33, #59, #40, #78, #75, #69, #68, #70, #46, #52, #63 ),
 .UNSPECIFIED., .F., .F.,
 ( 4, 2, 2, 2, 2, 2, 2, 2, 2, 2, 2, 2, 4 ),
 ( 0.02650623286661445500, 0.02689789487688928900, 0.02728955688716412600, 0.02807288090771379800, 0.02963952894881314100, 0.03120617698991248100, 0.03277282503101182400, 0.03433947307211117400, 0.03590612111321051000, 0.03747276915430985300, 0.03825609317485952100, 0.03864775518513435800, 0.03903941719540919600 ),
 .UNSPECIFIED. ) ;
#123 = DIRECTION ( 'NONE',  ( 0.0000000000000000000, 1.000000000000000000, 0.0000000000000000000 ) ) ;
#124 = DIRECTION ( 'NONE',  ( -0.0000000000000000000, -1.000000000000000000, -0.0000000000000000000 ) ) ;
#125 = DIRECTION ( 'NONE',  ( 0.0000000000000000000, -0.0000000000000000000, 1.000000000000000000 ) ) ;
#126 = DIRECTION ( 'NONE',  ( 0.0000000000000000000, 1.000000000000000000, 0.0000000000000000000 ) ) ;
#127 = CARTESIAN_POINT ( 'NONE',  ( 0.0000000000000000000, 0.5000000000000000000, 0.0000000000000000000 ) ) ;
#128 = CARTESIAN_POINT ( 'NONE',  ( 0.02823023858556648900, 0.4801769959869360800, -0.1585798418816042100 ) ) ;
#129 = PLANE ( 'NONE',  #104 ) ;
#130 = CARTESIAN_POINT ( 'NONE',  ( -0.02823023858595221200, 0.4801769959865784300, -0.1585798418816199700 ) ) ;
#131 = CARTESIAN_POINT ( 'NONE',  ( 0.02225575581623525200, 0.01490856483035457800, -0.1583603261832075300 ) ) ;
#132 = DIRECTION ( 'NONE',  ( -0.0000000000000000000, 1.000000000000000000, 1.237868622129119300E-016 ) ) ;
#133 =( LENGTH_UNIT ( ) NAMED_UNIT ( * ) SI_UNIT ( $, .METRE. ) );
#134 =( CONVERSION_BASED_UNIT ( 'INCH', #233 ) LENGTH_UNIT ( ) NAMED_UNIT ( #265 ) );
#135 = SURFACE_STYLE_USAGE ( .BOTH. , #136 ) ;
#136 = SURFACE_SIDE_STYLE ('',( #220 ) ) ;
#137 = CARTESIAN_POINT ( 'NONE',  ( 0.0000000000000000000, 0.5000000000000000000, 0.1412500000000001500 ) ) ;
#138 =( NAMED_UNIT ( * ) SI_UNIT ( $, .STERADIAN. ) SOLID_ANGLE_UNIT ( ) );
#139 = CARTESIAN_POINT ( 'NONE',  ( 0.0000000000000000000, 0.5000000000000000000, 0.0000000000000000000 ) ) ;
#140 = CARTESIAN_POINT ( 'NONE',  ( 0.0000000000000000000, 0.5000000000000000000, 0.0000000000000000000 ) ) ;
#141 = CARTESIAN_POINT ( 'NONE',  ( 0.0000000000000000000, 0.01490856483035500400, 0.0000000000000000000 ) ) ;
#142 =( LENGTH_UNIT ( ) NAMED_UNIT ( * ) SI_UNIT ( $, .METRE. ) );
#143 = DIRECTION ( 'NONE',  ( 0.0000000000000000000, 0.0000000000000000000, 1.000000000000000000 ) ) ;
#144 =( CONVERSION_BASED_UNIT ( 'INCH', #216 ) LENGTH_UNIT ( ) NAMED_UNIT ( #266 ) );
#145 = CARTESIAN_POINT ( 'NONE',  ( 0.0000000000000000000, 0.0000000000000000000, 0.1181102362204723400 ) ) ;
#146 = DIRECTION ( 'NONE',  ( 0.0000000000000000000, 0.0000000000000000000, 1.000000000000000000 ) ) ;
#147 = CARTESIAN_POINT ( 'NONE',  ( 0.0000000000000000000, 0.0000000000000000000, 0.0000000000000000000 ) ) ;
#148 = DIRECTION ( 'NONE',  ( 0.0000000000000000000, -1.237868622129119300E-016, 1.000000000000000000 ) ) ;
#149 = CARTESIAN_POINT ( 'NONE',  ( 0.0000000000000000000, 0.5000000000000000000, 0.0000000000000000000 ) ) ;
#150 = DIRECTION ( 'NONE',  ( -0.0000000000000000000, 1.000000000000000000, -0.0000000000000000000 ) ) ;
#151 = DIRECTION ( 'NONE',  ( 0.0000000000000000000, -1.000000000000000000, 0.0000000000000000000 ) ) ;
#152 = PLANE ( 'NONE',  #98 ) ;
#153 = DIRECTION ( 'NONE',  ( -0.0000000000000000000, 1.000000000000000000, -0.0000000000000000000 ) ) ;
#154 = CARTESIAN_POINT ( 'NONE',  ( 0.0000000000000000000, 0.5000000000000001100, 0.1181102362204720100 ) ) ;
#155 = CARTESIAN_POINT ( 'NONE',  ( 0.0000000000000000000, 0.0000000000000000000, 0.1353885660607381800 ) ) ;
#156 =( NAMED_UNIT ( * ) PLANE_ANGLE_UNIT ( ) SI_UNIT ( $, .RADIAN. ) );
#157 = CARTESIAN_POINT ( 'NONE',  ( -0.02225575581625841000, 0.01490856483037086500, -0.1583603261832081400 ) ) ;
#158 = DIRECTION ( 'NONE',  ( 0.0000000000000000000, 1.000000000000000000, 0.0000000000000000000 ) ) ;
#159 = CARTESIAN_POINT ( 'NONE',  ( 0.0000000000000000000, 0.5000000000000001100, -0.8455000000000000300 ) ) ;
#160 = DIRECTION ( 'NONE',  ( 0.0000000000000000000, -0.0000000000000000000, 1.000000000000000000 ) ) ;
#161 = DIRECTION ( 'NONE',  ( 0.0000000000000000000, 0.0000000000000000000, -1.000000000000000000 ) ) ;
#162 = DIRECTION ( 'NONE',  ( 0.0000000000000000000, 0.0000000000000000000, -1.000000000000000000 ) ) ;
#163 = FILL_AREA_STYLE_COLOUR ( '', #253 ) ;
#164 = DIRECTION ( 'NONE',  ( 0.0000000000000000000, 0.0000000000000000000, 1.000000000000000000 ) ) ;
#165 =( NAMED_UNIT ( * ) SI_UNIT ( $, .STERADIAN. ) SOLID_ANGLE_UNIT ( ) );
#166 = APPLICATION_CONTEXT ( 'automotive_design' ) ;
#167 =( NAMED_UNIT ( * ) PLANE_ANGLE_UNIT ( ) SI_UNIT ( $, .RADIAN. ) );
#168 = APPLICATION_PROTOCOL_DEFINITION ( 'draft international standard', 'automotive_design', 1998, #166 ) ;
#169 = FILL_AREA_STYLE ('',( #163 ) ) ;
#170 = SURFACE_SIDE_STYLE ('',( #244 ) ) ;
#171 = SURFACE_STYLE_USAGE ( .BOTH. , #170 ) ;
#172 =( CONVERSION_BASED_UNIT ( 'INCH', #254 ) LENGTH_UNIT ( ) NAMED_UNIT ( #258 ) );
#173 =( NAMED_UNIT ( * ) PLANE_ANGLE_UNIT ( ) SI_UNIT ( $, .RADIAN. ) );
#174 = CARTESIAN_POINT ( 'NONE',  ( 0.0000000000000000000, 0.0000000000000000000, 0.0000000000000000000 ) ) ;
#175 =( LENGTH_UNIT ( ) NAMED_UNIT ( * ) SI_UNIT ( $, .METRE. ) );
#176 =( NAMED_UNIT ( * ) SI_UNIT ( $, .STERADIAN. ) SOLID_ANGLE_UNIT ( ) );
#177 = DIRECTION ( 'NONE',  ( 0.0000000000000000000, 0.0000000000000000000, 1.000000000000000000 ) ) ;
#178 = DIRECTION ( 'NONE',  ( 1.000000000000000000, 0.0000000000000000000, 0.0000000000000000000 ) ) ;
#179 = PRODUCT_CONTEXT ( 'NONE', #166, 'mechanical' ) ;
#180 = APPLICATION_PROTOCOL_DEFINITION ( 'draft international standard', 'automotive_design', 1998, #181 ) ;
#181 = APPLICATION_CONTEXT ( 'automotive_design' ) ;
#182 = FACE_OUTER_BOUND ( 'NONE', #213, .T. ) ;
#183 = ORIENTED_EDGE ( 'NONE', *, *, #103, .T. ) ;
#184 = ORIENTED_EDGE ( 'NONE', *, *, #90, .T. ) ;
#185 = ORIENTED_EDGE ( 'NONE', *, *, #111, .F. ) ;
#186 = CIRCLE ( 'NONE', #95, 0.1412500000000001500 ) ;
#187 = FACE_BOUND ( 'NONE', #224, .T. ) ;
#188 = ORIENTED_EDGE ( 'NONE', *, *, #108, .F. ) ;
#189 = ORIENTED_EDGE ( 'NONE', *, *, #92, .F. ) ;
#190 = CYLINDRICAL_SURFACE ( 'NONE', #88, 0.6875000000000000000 ) ;
#191 = FACE_OUTER_BOUND ( 'NONE', #226, .T. ) ;
#192 = VERTEX_POINT ( 'NONE', #155 ) ;
#193 = ORIENTED_EDGE ( 'NONE', *, *, #89, .F. ) ;
#194 = ORIENTED_EDGE ( 'NONE', *, *, #108, .T. ) ;
#195 = ORIENTED_EDGE ( 'NONE', *, *, #103, .F. ) ;
#196 = PRESENTATION_STYLE_ASSIGNMENT (( #135 ) ) ;
#197 = ORIENTED_EDGE ( 'NONE', *, *, #89, .T. ) ;
#198 = EDGE_LOOP ( 'NONE', ( #189, #218, #229, #183 ) ) ;
#199 = CYLINDRICAL_SURFACE ( 'NONE', #97, 0.1181102362204721800 ) ;
#200 = EDGE_LOOP ( 'NONE', ( #240 ) ) ;
#201 = EDGE_LOOP ( 'NONE', ( #250 ) ) ;
#202 = CIRCLE ( 'NONE', #99, 0.1181102362204723400 ) ;
#203 = CLOSED_SHELL ( 'NONE', ( #259, #264, #263, #260, #267, #261, #262 ) ) ;
#204 = COLOUR_RGB ( '',0.7921568627450980000, 0.8196078431372548800, 0.9333333333333333500 ) ;
#205 = VERTEX_POINT ( 'NONE', #128 ) ;
#206 = CIRCLE ( 'NONE', #91, 0.1353885660607381800 ) ;
#207 = VERTEX_POINT ( 'NONE', #145 ) ;
#208 = CIRCLE ( 'NONE', #81, 0.1181102362204720100 ) ;
#209 = VERTEX_POINT ( 'NONE', #130 ) ;
#210 = ORIENTED_EDGE ( 'NONE', *, *, #112, .F. ) ;
#211 = VERTEX_POINT ( 'NONE', #137 ) ;
#212 = FACE_OUTER_BOUND ( 'NONE', #198, .T. ) ;
#213 = EDGE_LOOP ( 'NONE', ( #221 ) ) ;
#214 = FACE_OUTER_BOUND ( 'NONE', #200, .T. ) ;
#215 = ORIENTED_EDGE ( 'NONE', *, *, #90, .F. ) ;
#216 = LENGTH_MEASURE_WITH_UNIT ( LENGTH_MEASURE( 0.02539999999999999900 ), #142 );
#217 = TOROIDAL_SURFACE ( 'NONE', #80, -0.8281249999999998900, 1.015625000000000000 ) ;
#218 = ORIENTED_EDGE ( 'NONE', *, *, #100, .T. ) ;
#219 = CIRCLE ( 'NONE', #87, 0.1610730040130642900 ) ;
#220 = SURFACE_STYLE_FILL_AREA ( #31 ) ;
#221 = ORIENTED_EDGE ( 'NONE', *, *, #111, .T. ) ;
#222 = VERTEX_POINT ( 'NONE', #157 ) ;
#223 = FACE_OUTER_BOUND ( 'NONE', #201, .T. ) ;
#224 = EDGE_LOOP ( 'NONE', ( #194 ) ) ;
#225 = ORIENTED_EDGE ( 'NONE', *, *, #100, .F. ) ;
#226 = EDGE_LOOP ( 'NONE', ( #188 ) ) ;
#227 = VERTEX_POINT ( 'NONE', #131 ) ;
#228 = CIRCLE ( 'NONE', #102, 0.1599165769262327600 ) ;
#229 = ORIENTED_EDGE ( 'NONE', *, *, #109, .F. ) ;
#230 = ORIENTED_EDGE ( 'NONE', *, *, #92, .T. ) ;
#231 = FACE_OUTER_BOUND ( 'NONE', #242, .T. ) ;
#232 = FACE_BOUND ( 'NONE', #247, .T. ) ;
#233 = LENGTH_MEASURE_WITH_UNIT ( LENGTH_MEASURE( 0.02539999999999999900 ), #133 );
#234 = FACE_OUTER_BOUND ( 'NONE', #248, .T. ) ;
#235 = CONICAL_SURFACE ( 'NONE', #106, 0.1412500000000001500, 0.7853981633974517200 ) ;
#236 = FACE_BOUND ( 'NONE', #238, .T. ) ;
#237 = ORIENTED_EDGE ( 'NONE', *, *, #109, .T. ) ;
#238 = EDGE_LOOP ( 'NONE', ( #185 ) ) ;
#239 = FACE_BOUND ( 'NONE', #241, .T. ) ;
#240 = ORIENTED_EDGE ( 'NONE', *, *, #110, .T. ) ;
#241 = EDGE_LOOP ( 'NONE', ( #243 ) ) ;
#242 = EDGE_LOOP ( 'NONE', ( #237, #184, #230, #197 ) ) ;
#243 = ORIENTED_EDGE ( 'NONE', *, *, #110, .F. ) ;
#244 = SURFACE_STYLE_FILL_AREA ( #169 ) ;
#245 = VERTEX_POINT ( 'NONE', #154 ) ;
#246 = FACE_OUTER_BOUND ( 'NONE', #249, .T. ) ;
#247 = EDGE_LOOP ( 'NONE', ( #210 ) ) ;
#248 = EDGE_LOOP ( 'NONE', ( #215, #225 ) ) ;
#249 = EDGE_LOOP ( 'NONE', ( #193, #195 ) ) ;
#250 = ORIENTED_EDGE ( 'NONE', *, *, #112, .T. ) ;
#251 = CONICAL_SURFACE ( 'NONE', #107, 0.1599165769262328700, 1.024648168936664200 ) ;
#252 = PRESENTATION_STYLE_ASSIGNMENT (( #171 ) ) ;
#253 = COLOUR_RGB ( '',0.7921568627450980000, 0.8196078431372548800, 0.9333333333333333500 ) ;
#254 = LENGTH_MEASURE_WITH_UNIT ( LENGTH_MEASURE( 0.02539999999999999900 ), #175 );
#255 = PRODUCT_DEFINITION_SHAPE ( 'NONE', 'NONE',  #115 ) ;
#256 = PRODUCT_DEFINITION_CONTEXT ( 'detailed design', #181, 'design' ) ;
#257 = SHAPE_DEFINITION_REPRESENTATION ( #255, #269 ) ;
#258 = DIMENSIONAL_EXPONENTS ( 1.000000000000000000, 0.0000000000000000000, 0.0000000000000000000, 0.0000000000000000000, 0.0000000000000000000, 0.0000000000000000000, 0.0000000000000000000 ) ;
#259 = ADVANCED_FACE ( 'NONE', ( #223, #236 ), #129, .T. ) ;
#260 = ADVANCED_FACE ( 'NONE', ( #212 ), #217, .T. ) ;
#261 = ADVANCED_FACE ( 'NONE', ( #239, #234 ), #251, .T. ) ;
#262 = ADVANCED_FACE ( 'NONE', ( #246, #232 ), #235, .T. ) ;
#263 = ADVANCED_FACE ( 'NONE', ( #191, #182 ), #199, .F. ) ;
#264 = ADVANCED_FACE ( 'NONE', ( #214, #187 ), #152, .F. ) ;
#265 = DIMENSIONAL_EXPONENTS ( 1.000000000000000000, 0.0000000000000000000, 0.0000000000000000000, 0.0000000000000000000, 0.0000000000000000000, 0.0000000000000000000, 0.0000000000000000000 ) ;
#266 = DIMENSIONAL_EXPONENTS ( 1.000000000000000000, 0.0000000000000000000, 0.0000000000000000000, 0.0000000000000000000, 0.0000000000000000000, 0.0000000000000000000, 0.0000000000000000000 ) ;
#267 = ADVANCED_FACE ( 'NONE', ( #231 ), #190, .F. ) ;
#268 = UNCERTAINTY_MEASURE_WITH_UNIT (LENGTH_MEASURE( 1.000000000000000100E-005 ), #172, 'distance_accuracy_value', 'NONE');
#269 = ADVANCED_BREP_SHAPE_REPRESENTATION ( 'CS0008', ( #116, #85 ), #94 ) ;
ENDSEC;
END-ISO-10303-21;
