ISO-10303-21;
HEADER;
FILE_DESCRIPTION (( 'STEP AP214' ),
    '1' );
FILE_NAME ('BK0032_1036_2036.STEP',
    '2025-04-10T16:46:13',
    ( '' ),
    ( '' ),
    'SwSTEP 2.0',
    'SolidWorks 2023',
    '' );
FILE_SCHEMA (( 'AUTOMOTIVE_DESIGN' ));
ENDSEC;

DATA;
#1 = FACE_OUTER_BOUND ( 'NONE', #98, .T. ) ;
#2 = CARTESIAN_POINT ( 'NONE',  ( -2.143131898507869145E-18, 0.04000000000000000083, -1.000000000000000000 ) ) ;
#3 = ORIENTED_EDGE ( 'NONE', *, *, #262, .T. ) ;
#4 = CIRCLE ( 'NONE', #352, 0.01500000000000001159 ) ;
#5 = DIRECTION ( 'NONE',  ( 0.000000000000000000, 0.000000000000000000, 1.000000000000000000 ) ) ;
#6 = VERTEX_POINT ( 'NONE', #392 ) ;
#7 = FACE_BOUND ( 'NONE', #377, .T. ) ;
#8 = EDGE_LOOP ( 'NONE', ( #64, #323, #175, #235 ) ) ;
#9 = DIRECTION ( 'NONE',  ( 1.000000000000000000, 0.000000000000000000, 0.000000000000000000 ) ) ;
#10 = ORIENTED_EDGE ( 'NONE', *, *, #39, .T. ) ;
#11 = PRODUCT ( 'BK0032_1036_2036', 'BK0032_1036_2036', '', ( #122 ) ) ;
#12 =( LENGTH_UNIT ( ) NAMED_UNIT ( * ) SI_UNIT ( $, .METRE. ) );
#13 = ORIENTED_EDGE ( 'NONE', *, *, #321, .T. ) ;
#14 = EDGE_CURVE ( 'NONE', #42, #83, #69, .T. ) ;
#15 = CARTESIAN_POINT ( 'NONE',  ( 0.2600000000000000089, 0.000000000000000000, -0.6059999999999999831 ) ) ;
#16 = ORIENTED_EDGE ( 'NONE', *, *, #32, .F. ) ;
#17 = CARTESIAN_POINT ( 'NONE',  ( -0.2449999999999999956, 3.000384657911014877E-17, -0.5909999999999999698 ) ) ;
#18 = DIRECTION ( 'NONE',  ( 1.000000000000000000, 0.000000000000000000, 0.000000000000000000 ) ) ;
#19 = VECTOR ( 'NONE', #160, 39.37007874015748143 ) ;
#20 = ADVANCED_FACE ( 'NONE', ( #170 ), #87, .F. ) ;
#21 = ORIENTED_EDGE ( 'NONE', *, *, #378, .F. ) ;
#22 = DIRECTION ( 'NONE',  ( 0.000000000000000000, -0.000000000000000000, -1.000000000000000000 ) ) ;
#23 = ORIENTED_EDGE ( 'NONE', *, *, #14, .F. ) ;
#24 = DIRECTION ( 'NONE',  ( 0.000000000000000000, 0.000000000000000000, 1.000000000000000000 ) ) ;
#25 = ORIENTED_EDGE ( 'NONE', *, *, #118, .T. ) ;
#26 = ADVANCED_FACE ( 'NONE', ( #229 ), #56, .F. ) ;
#27 = DIRECTION ( 'NONE',  ( 2.134256245050206194E-16, -1.000000000000000000, 0.000000000000000000 ) ) ;
#28 = AXIS2_PLACEMENT_3D ( 'NONE', #2, #249, #36 ) ;
#29 = DIRECTION ( 'NONE',  ( -0.000000000000000000, 0.000000000000000000, 1.000000000000000000 ) ) ;
#30 = APPLICATION_CONTEXT ( 'automotive_design' ) ;
#31 = DIRECTION ( 'NONE',  ( 1.000000000000000000, 0.000000000000000000, 0.000000000000000000 ) ) ;
#32 = EDGE_CURVE ( 'NONE', #83, #42, #173, .T. ) ;
#33 = DIRECTION ( 'NONE',  ( 1.000000000000000000, 0.000000000000000000, 0.000000000000000000 ) ) ;
#34 = CIRCLE ( 'NONE', #319, 0.2600000000000000089 ) ;
#35 = DIRECTION ( 'NONE',  ( 0.000000000000000000, 0.000000000000000000, 1.000000000000000000 ) ) ;
#36 = DIRECTION ( 'NONE',  ( 1.000000000000000000, 0.000000000000000000, 0.000000000000000000 ) ) ;
#37 = ORIENTED_EDGE ( 'NONE', *, *, #383, .T. ) ;
#38 = DIRECTION ( 'NONE',  ( -0.000000000000000000, 0.000000000000000000, 1.000000000000000000 ) ) ;
#39 = EDGE_CURVE ( 'NONE', #73, #115, #239, .T. ) ;
#40 = AXIS2_PLACEMENT_3D ( 'NONE', #273, #332, #27 ) ;
#41 = DIRECTION ( 'NONE',  ( 1.000000000000000000, 0.000000000000000000, 0.000000000000000000 ) ) ;
#42 = VERTEX_POINT ( 'NONE', #178 ) ;
#43 = DIRECTION ( 'NONE',  ( 0.000000000000000000, 0.000000000000000000, 1.000000000000000000 ) ) ;
#44 = EDGE_CURVE ( 'NONE', #384, #48, #90, .T. ) ;
#45 = CARTESIAN_POINT ( 'NONE',  ( 0.1025000000000000216, -0.03999999999999998002, -0.6059999999999999831 ) ) ;
#46 = EDGE_LOOP ( 'NONE', ( #237, #315, #288, #390 ) ) ;
#47 = PRESENTATION_STYLE_ASSIGNMENT (( #79 ) ) ;
#48 = VERTEX_POINT ( 'NONE', #123 ) ;
#49 = CARTESIAN_POINT ( 'NONE',  ( 0.1024999999999999939, 0.04000000000000004940, -1.000000000000000000 ) ) ;
#50 = EDGE_LOOP ( 'NONE', ( #359, #292, #176, #3 ) ) ;
#51 = TOROIDAL_SURFACE ( 'NONE', #368, 0.2449999999999999956, 0.01499999999999999944 ) ;
#52 = VECTOR ( 'NONE', #35, 39.37007874015748143 ) ;
#53 = APPLICATION_PROTOCOL_DEFINITION ( 'draft international standard', 'automotive_design', 1998, #110 ) ;
#54 = ORIENTED_EDGE ( 'NONE', *, *, #233, .F. ) ;
#55 = EDGE_CURVE ( 'NONE', #6, #198, #93, .T. ) ;
#56 = PLANE ( 'NONE',  #40 ) ;
#57 = APPLICATION_PROTOCOL_DEFINITION ( 'draft international standard', 'automotive_design', 1998, #30 ) ;
#58 = CARTESIAN_POINT ( 'NONE',  ( 0.000000000000000000, 0.000000000000000000, -0.6059999999999999831 ) ) ;
#59 = CARTESIAN_POINT ( 'NONE',  ( 0.3125000000000000000, 0.000000000000000000, 0.000000000000000000 ) ) ;
#60 = ADVANCED_FACE ( 'NONE', ( #119 ), #403, .T. ) ;
#61 = DIRECTION ( 'NONE',  ( 1.000000000000000000, 0.000000000000000000, 0.000000000000000000 ) ) ;
#62 = CARTESIAN_POINT ( 'NONE',  ( -0.3125000000000000000, 3.827021247335478926E-17, 0.000000000000000000 ) ) ;
#63 = DIRECTION ( 'NONE',  ( 1.000000000000000000, 0.000000000000000000, 0.000000000000000000 ) ) ;
#64 = ORIENTED_EDGE ( 'NONE', *, *, #326, .F. ) ;
#65 = ADVANCED_BREP_SHAPE_REPRESENTATION ( 'BK0032_1036_2036', ( #339, #95 ), #232 ) ;
#66 = CYLINDRICAL_SURFACE ( 'NONE', #185, 0.2600000000000000089 ) ;
#67 = VERTEX_POINT ( 'NONE', #207 ) ;
#68 = PLANE ( 'NONE',  #360 ) ;
#69 = CIRCLE ( 'NONE', #209, 0.2600000000000000089 ) ;
#70 = AXIS2_PLACEMENT_3D ( 'NONE', #379, #225, #9 ) ;
#71 = PLANE ( 'NONE',  #163 ) ;
#72 = CARTESIAN_POINT ( 'NONE',  ( 0.000000000000000000, 0.000000000000000000, -0.6059999999999999831 ) ) ;
#73 = VERTEX_POINT ( 'NONE', #59 ) ;
#74 =( NAMED_UNIT ( * ) SI_UNIT ( $, .STERADIAN. ) SOLID_ANGLE_UNIT ( ) );
#75 = ORIENTED_EDGE ( 'NONE', *, *, #113, .F. ) ;
#76 = FACE_OUTER_BOUND ( 'NONE', #8, .T. ) ;
#77 = VERTEX_POINT ( 'NONE', #121 ) ;
#78 = VERTEX_POINT ( 'NONE', #184 ) ;
#79 = SURFACE_STYLE_USAGE ( .BOTH. , #265 ) ;
#80 = EDGE_LOOP ( 'NONE', ( #54, #112, #168, #100 ) ) ;
#81 = VECTOR ( 'NONE', #367, 39.37007874015748143 ) ;
#82 = CARTESIAN_POINT ( 'NONE',  ( 0.1025000000000000216, -0.03999999999999998002, -1.000000000000000000 ) ) ;
#83 = VERTEX_POINT ( 'NONE', #304 ) ;
#84 = DIRECTION ( 'NONE',  ( 0.000000000000000000, 0.000000000000000000, 1.000000000000000000 ) ) ;
#85 =( NAMED_UNIT ( * ) SI_UNIT ( $, .STERADIAN. ) SOLID_ANGLE_UNIT ( ) );
#86 = DIRECTION ( 'NONE',  ( -0.000000000000000000, 0.000000000000000000, 1.000000000000000000 ) ) ;
#87 = TOROIDAL_SURFACE ( 'NONE', #372, 0.2449999999999999956, 0.01499999999999999944 ) ;
#88 = CARTESIAN_POINT ( 'NONE',  ( 0.1025000000000000216, 2.187612651176460049E-17, -0.6059999999999999831 ) ) ;
#89 = CIRCLE ( 'NONE', #286, 0.2449999999999999956 ) ;
#90 = LINE ( 'NONE', #305, #127 ) ;
#91 = FACE_OUTER_BOUND ( 'NONE', #46, .T. ) ;
#92 = DIRECTION ( 'NONE',  ( 1.000000000000000000, 0.000000000000000000, -0.000000000000000000 ) ) ;
#93 = CIRCLE ( 'NONE', #179, 0.2449999999999999956 ) ;
#94 = EDGE_CURVE ( 'NONE', #115, #73, #312, .T. ) ;
#95 = AXIS2_PLACEMENT_3D ( 'NONE', #302, #24, #331 ) ;
#96 = DIRECTION ( 'NONE',  ( 0.000000000000000000, -1.000000000000000000, 0.000000000000000000 ) ) ;
#97 = LINE ( 'NONE', #194, #19 ) ;
#98 = EDGE_LOOP ( 'NONE', ( #220, #355 ) ) ;
#99 = PLANE ( 'NONE',  #101 ) ;
#100 = ORIENTED_EDGE ( 'NONE', *, *, #182, .F. ) ;
#101 = AXIS2_PLACEMENT_3D ( 'NONE', #158, #38, #228 ) ;
#102 = CARTESIAN_POINT ( 'NONE',  ( 0.000000000000000000, 0.000000000000000000, -1.000000000000000000 ) ) ;
#103 = ORIENTED_EDGE ( 'NONE', *, *, #118, .F. ) ;
#104 = SURFACE_STYLE_FILL_AREA ( #382 ) ;
#105 = ADVANCED_FACE ( 'NONE', ( #308 ), #269, .F. ) ;
#106 = ORIENTED_EDGE ( 'NONE', *, *, #44, .T. ) ;
#107 = VERTEX_POINT ( 'NONE', #212 ) ;
#108 = VECTOR ( 'NONE', #138, 39.37007874015748143 ) ;
#109 = ORIENTED_EDGE ( 'NONE', *, *, #39, .F. ) ;
#110 = APPLICATION_CONTEXT ( 'automotive_design' ) ;
#111 = DIRECTION ( 'NONE',  ( 1.000000000000000000, 0.000000000000000000, 0.000000000000000000 ) ) ;
#112 = ORIENTED_EDGE ( 'NONE', *, *, #375, .T. ) ;
#113 = EDGE_CURVE ( 'NONE', #77, #342, #293, .T. ) ;
#114 = DIRECTION ( 'NONE',  ( -1.000000000000000000, 1.224646799147352221E-16, 0.000000000000000000 ) ) ;
#115 = VERTEX_POINT ( 'NONE', #62 ) ;
#116 =( NAMED_UNIT ( * ) PLANE_ANGLE_UNIT ( ) SI_UNIT ( $, .RADIAN. ) );
#117 = CARTESIAN_POINT ( 'NONE',  ( -0.1024999999999999939, 0.03999999999999995226, -1.000000000000000000 ) ) ;
#118 = EDGE_CURVE ( 'NONE', #67, #77, #369, .T. ) ;
#119 = FACE_OUTER_BOUND ( 'NONE', #142, .T. ) ;
#120 = AXIS2_PLACEMENT_3D ( 'NONE', #181, #29, #153 ) ;
#121 = CARTESIAN_POINT ( 'NONE',  ( -0.1024999999999999939, -0.04000000000000001471, -0.6059999999999999831 ) ) ;
#122 = PRODUCT_CONTEXT ( 'NONE', #30, 'mechanical' ) ;
#123 = CARTESIAN_POINT ( 'NONE',  ( 0.1024999999999999939, 0.04000000000000004940, -0.6059999999999999831 ) ) ;
#124 = DIRECTION ( 'NONE',  ( 0.000000000000000000, 0.000000000000000000, 1.000000000000000000 ) ) ;
#125 = EDGE_CURVE ( 'NONE', #327, #78, #400, .T. ) ;
#126 = CARTESIAN_POINT ( 'NONE',  ( 0.1025000000000000216, 2.187612651176460049E-17, -1.000000000000000000 ) ) ;
#127 = VECTOR ( 'NONE', #275, 39.37007874015748143 ) ;
#128 = STYLED_ITEM ( 'NONE', ( #47 ), #339 ) ;
#129 = ORIENTED_EDGE ( 'NONE', *, *, #14, .T. ) ;
#130 = DIRECTION ( 'NONE',  ( -0.000000000000000000, -0.000000000000000000, 1.000000000000000000 ) ) ;
#131 = ORIENTED_EDGE ( 'NONE', *, *, #247, .T. ) ;
#132 = PLANE ( 'NONE',  #401 ) ;
#133 = ORIENTED_EDGE ( 'NONE', *, *, #309, .F. ) ;
#134 = CARTESIAN_POINT ( 'NONE',  ( -2.143131898507869145E-18, 0.04000000000000000083, -1.000000000000000000 ) ) ;
#135 = ORIENTED_EDGE ( 'NONE', *, *, #125, .T. ) ;
#136 = VECTOR ( 'NONE', #174, 39.37007874015748143 ) ;
#137 = LINE ( 'NONE', #289, #294 ) ;
#138 = DIRECTION ( 'NONE',  ( -0.000000000000000000, -0.000000000000000000, 1.000000000000000000 ) ) ;
#139 = EDGE_CURVE ( 'NONE', #346, #67, #248, .T. ) ;
#140 = EDGE_LOOP ( 'NONE', ( #206, #146, #196, #349 ) ) ;
#141 = FACE_OUTER_BOUND ( 'NONE', #50, .T. ) ;
#142 = EDGE_LOOP ( 'NONE', ( #386, #224, #109, #258 ) ) ;
#143 = AXIS2_PLACEMENT_3D ( 'NONE', #214, #272, #244 ) ;
#144 = DIRECTION ( 'NONE',  ( 0.000000000000000000, 0.000000000000000000, 1.000000000000000000 ) ) ;
#145 = VERTEX_POINT ( 'NONE', #370 ) ;
#146 = ORIENTED_EDGE ( 'NONE', *, *, #177, .F. ) ;
#147 = UNCERTAINTY_MEASURE_WITH_UNIT (LENGTH_MEASURE( 1.000000000000000082E-05 ), #297, 'distance_accuracy_value', 'NONE');
#148 = CARTESIAN_POINT ( 'NONE',  ( 0.000000000000000000, 0.000000000000000000, -0.5909999999999999698 ) ) ;
#149 = VECTOR ( 'NONE', #301, 39.37007874015748143 ) ;
#150 = CARTESIAN_POINT ( 'NONE',  ( 0.000000000000000000, 0.000000000000000000, 0.000000000000000000 ) ) ;
#151 = ADVANCED_FACE ( 'NONE', ( #91 ), #51, .F. ) ;
#152 = CARTESIAN_POINT ( 'NONE',  ( 0.000000000000000000, 0.000000000000000000, -0.5909999999999999698 ) ) ;
#153 = DIRECTION ( 'NONE',  ( 1.000000000000000000, 0.000000000000000000, 0.000000000000000000 ) ) ;
#154 = DIRECTION ( 'NONE',  ( 0.000000000000000000, 0.000000000000000000, 1.000000000000000000 ) ) ;
#155 = FACE_OUTER_BOUND ( 'NONE', #162, .T. ) ;
#156 = LINE ( 'NONE', #126, #300 ) ;
#157 = ORIENTED_EDGE ( 'NONE', *, *, #378, .T. ) ;
#158 = CARTESIAN_POINT ( 'NONE',  ( 0.000000000000000000, 0.000000000000000000, -0.6059999999999999831 ) ) ;
#159 = FACE_OUTER_BOUND ( 'NONE', #140, .T. ) ;
#160 = DIRECTION ( 'NONE',  ( 0.000000000000000000, 0.000000000000000000, 1.000000000000000000 ) ) ;
#161 =( NAMED_UNIT ( * ) PLANE_ANGLE_UNIT ( ) SI_UNIT ( $, .RADIAN. ) );
#162 = EDGE_LOOP ( 'NONE', ( #131, #279, #388, #106 ) ) ;
#163 = AXIS2_PLACEMENT_3D ( 'NONE', #191, #278, #256 ) ;
#164 = AXIS2_PLACEMENT_3D ( 'NONE', #299, #86, #271 ) ;
#165 = VECTOR ( 'NONE', #144, 39.37007874015748143 ) ;
#166 = EDGE_CURVE ( 'NONE', #107, #263, #192, .T. ) ;
#167 = DIRECTION ( 'NONE',  ( 1.224646799147353207E-16, 1.000000000000000000, 0.000000000000000000 ) ) ;
#168 = ORIENTED_EDGE ( 'NONE', *, *, #125, .F. ) ;
#169 = FILL_AREA_STYLE_COLOUR ( '', #328 ) ;
#170 = FACE_OUTER_BOUND ( 'NONE', #80, .T. ) ;
#171 = DIRECTION ( 'NONE',  ( 2.134256245050204715E-16, -1.000000000000000000, 0.000000000000000000 ) ) ;
#172 = ORIENTED_EDGE ( 'NONE', *, *, #94, .T. ) ;
#173 = CIRCLE ( 'NONE', #204, 0.2600000000000000089 ) ;
#174 = DIRECTION ( 'NONE',  ( 0.000000000000000000, 0.000000000000000000, 1.000000000000000000 ) ) ;
#175 = ORIENTED_EDGE ( 'NONE', *, *, #250, .T. ) ;
#176 = ORIENTED_EDGE ( 'NONE', *, *, #166, .F. ) ;
#177 = EDGE_CURVE ( 'NONE', #48, #342, #365, .T. ) ;
#178 = CARTESIAN_POINT ( 'NONE',  ( 0.2600000000000000089, 0.000000000000000000, 0.000000000000000000 ) ) ;
#179 = AXIS2_PLACEMENT_3D ( 'NONE', #58, #363, #61 ) ;
#180 = CIRCLE ( 'NONE', #387, 0.3125000000000000000 ) ;
#181 = CARTESIAN_POINT ( 'NONE',  ( 2.234980408443919276E-17, -0.04000000000000000083, -0.6059999999999999831 ) ) ;
#182 = EDGE_CURVE ( 'NONE', #6, #327, #274, .T. ) ;
#183 = DIRECTION ( 'NONE',  ( 1.000000000000000000, 0.000000000000000000, 0.000000000000000000 ) ) ;
#184 = CARTESIAN_POINT ( 'NONE',  ( -0.2600000000000000089, 3.184081677783118684E-17, -0.5909999999999999698 ) ) ;
#185 = AXIS2_PLACEMENT_3D ( 'NONE', #195, #130, #41 ) ;
#186 = DIRECTION ( 'NONE',  ( 1.000000000000000000, 0.000000000000000000, 0.000000000000000000 ) ) ;
#187 = DIRECTION ( 'NONE',  ( 0.000000000000000000, 0.000000000000000000, 1.000000000000000000 ) ) ;
#188 = ORIENTED_EDGE ( 'NONE', *, *, #177, .T. ) ;
#189 = EDGE_CURVE ( 'NONE', #384, #346, #284, .T. ) ;
#190 = FACE_OUTER_BOUND ( 'NONE', #320, .T. ) ;
#191 = CARTESIAN_POINT ( 'NONE',  ( 0.1025000000000000216, 2.187612651176460049E-17, -1.000000000000000000 ) ) ;
#192 = CIRCLE ( 'NONE', #164, 0.1024999999999999939 ) ;
#193 = ORIENTED_EDGE ( 'NONE', *, *, #55, .T. ) ;
#194 = CARTESIAN_POINT ( 'NONE',  ( -0.1024999999999999939, -0.04000000000000001471, -1.000000000000000000 ) ) ;
#195 = CARTESIAN_POINT ( 'NONE',  ( 0.000000000000000000, 0.000000000000000000, -0.6059999999999999831 ) ) ;
#196 = ORIENTED_EDGE ( 'NONE', *, *, #44, .F. ) ;
#197 = CARTESIAN_POINT ( 'NONE',  ( 0.2600000000000000089, 0.000000000000000000, -0.5909999999999999698 ) ) ;
#198 = VERTEX_POINT ( 'NONE', #277 ) ;
#199 = AXIS2_PLACEMENT_3D ( 'NONE', #397, #243, #33 ) ;
#200 = VERTEX_POINT ( 'NONE', #340 ) ;
#201 = ORIENTED_EDGE ( 'NONE', *, *, #383, .F. ) ;
#202 = CYLINDRICAL_SURFACE ( 'NONE', #245, 0.3125000000000000000 ) ;
#203 = ORIENTED_EDGE ( 'NONE', *, *, #233, .T. ) ;
#204 = AXIS2_PLACEMENT_3D ( 'NONE', #398, #216, #330 ) ;
#205 = UNCERTAINTY_MEASURE_WITH_UNIT (LENGTH_MEASURE( 1.000000000000000082E-05 ), #234, 'distance_accuracy_value', 'NONE');
#206 = ORIENTED_EDGE ( 'NONE', *, *, #356, .T. ) ;
#207 = CARTESIAN_POINT ( 'NONE',  ( -0.1024999999999999939, 0.03999999999999995226, -0.6059999999999999831 ) ) ;
#208 = DIRECTION ( 'NONE',  ( 1.000000000000000000, 0.000000000000000000, 0.000000000000000000 ) ) ;
#209 = AXIS2_PLACEMENT_3D ( 'NONE', #238, #260, #290 ) ;
#210 = AXIS2_PLACEMENT_3D ( 'NONE', #358, #261, #385 ) ;
#211 = DIMENSIONAL_EXPONENTS ( 1.000000000000000000, 0.000000000000000000, 0.000000000000000000, 0.000000000000000000, 0.000000000000000000, 0.000000000000000000, 0.000000000000000000 ) ;
#212 = CARTESIAN_POINT ( 'NONE',  ( -0.1024999999999999939, -0.04000000000000001471, -1.000000000000000000 ) ) ;
#213 = ADVANCED_FACE ( 'NONE', ( #371, #310 ), #99, .T. ) ;
#214 = CARTESIAN_POINT ( 'NONE',  ( 0.000000000000000000, 0.000000000000000000, 0.000000000000000000 ) ) ;
#215 = ADVANCED_FACE ( 'NONE', ( #219 ), #66, .F. ) ;
#216 = DIRECTION ( 'NONE',  ( -0.000000000000000000, 0.000000000000000000, 1.000000000000000000 ) ) ;
#217 = DIRECTION ( 'NONE',  ( 2.134256245050204715E-16, -1.000000000000000000, 0.000000000000000000 ) ) ;
#218 = EDGE_LOOP ( 'NONE', ( #75, #103, #357, #188 ) ) ;
#219 = FACE_OUTER_BOUND ( 'NONE', #296, .T. ) ;
#220 = ORIENTED_EDGE ( 'NONE', *, *, #255, .F. ) ;
#221 = ADVANCED_FACE ( 'NONE', ( #345, #1 ), #68, .F. ) ;
#222 = ADVANCED_FACE ( 'NONE', ( #159 ), #71, .T. ) ;
#223 = DIRECTION ( 'NONE',  ( -0.000000000000000000, 0.000000000000000000, 1.000000000000000000 ) ) ;
#224 = ORIENTED_EDGE ( 'NONE', *, *, #326, .T. ) ;
#225 = DIRECTION ( 'NONE',  ( -0.000000000000000000, 0.000000000000000000, 1.000000000000000000 ) ) ;
#226 = VECTOR ( 'NONE', #217, 39.37007874015748143 ) ;
#227 = ORIENTED_EDGE ( 'NONE', *, *, #366, .T. ) ;
#228 = DIRECTION ( 'NONE',  ( 1.000000000000000000, 0.000000000000000000, 0.000000000000000000 ) ) ;
#229 = FACE_OUTER_BOUND ( 'NONE', #268, .T. ) ;
#230 = DIRECTION ( 'NONE',  ( -0.000000000000000000, -0.000000000000000000, 1.000000000000000000 ) ) ;
#231 = EDGE_LOOP ( 'NONE', ( #374, #227, #266, #133 ) ) ;
#232 =( GEOMETRIC_REPRESENTATION_CONTEXT ( 3 ) GLOBAL_UNCERTAINTY_ASSIGNED_CONTEXT ( ( #147 ) ) GLOBAL_UNIT_ASSIGNED_CONTEXT ( ( #297, #116, #85 ) ) REPRESENTATION_CONTEXT ( 'NONE', 'WORKASPACE' ) );
#233 = EDGE_CURVE ( 'NONE', #198, #6, #89, .T. ) ;
#234 =( CONVERSION_BASED_UNIT ( 'INCH', #389 ) LENGTH_UNIT ( ) NAMED_UNIT ( #211 ) );
#235 = ORIENTED_EDGE ( 'NONE', *, *, #94, .F. ) ;
#236 = LINE ( 'NONE', #324, #270 ) ;
#237 = ORIENTED_EDGE ( 'NONE', *, *, #375, .F. ) ;
#238 = CARTESIAN_POINT ( 'NONE',  ( 0.000000000000000000, 0.000000000000000000, 0.000000000000000000 ) ) ;
#239 = CIRCLE ( 'NONE', #396, 0.3125000000000000000 ) ;
#240 = CIRCLE ( 'NONE', #70, 0.1024999999999999939 ) ;
#241 = DIRECTION ( 'NONE',  ( 1.000000000000000000, 0.000000000000000000, 0.000000000000000000 ) ) ;
#242 = ADVANCED_FACE ( 'NONE', ( #7, #190 ), #132, .T. ) ;
#243 = DIRECTION ( 'NONE',  ( 0.000000000000000000, -0.000000000000000000, -1.000000000000000000 ) ) ;
#244 = DIRECTION ( 'NONE',  ( 1.000000000000000000, 0.000000000000000000, 0.000000000000000000 ) ) ;
#245 = AXIS2_PLACEMENT_3D ( 'NONE', #267, #295, #111 ) ;
#246 = CARTESIAN_POINT ( 'NONE',  ( 0.000000000000000000, 0.000000000000000000, -0.6059999999999999831 ) ) ;
#247 = EDGE_CURVE ( 'NONE', #48, #67, #240, .T. ) ;
#248 = LINE ( 'NONE', #117, #81 ) ;
#249 = DIRECTION ( 'NONE',  ( 0.000000000000000000, 0.000000000000000000, 1.000000000000000000 ) ) ;
#250 = EDGE_CURVE ( 'NONE', #145, #73, #381, .T. ) ;
#251 = AXIS2_PLACEMENT_3D ( 'NONE', #399, #84, #186 ) ;
#252 = CARTESIAN_POINT ( 'NONE',  ( 0.1025000000000000216, -0.04000000000000000083, -1.000000000000000000 ) ) ;
#253 = DIRECTION ( 'NONE',  ( 1.000000000000000000, 0.000000000000000000, 0.000000000000000000 ) ) ;
#254 = CARTESIAN_POINT ( 'NONE',  ( 0.000000000000000000, 0.000000000000000000, 0.000000000000000000 ) ) ;
#255 = EDGE_CURVE ( 'NONE', #145, #200, #180, .T. ) ;
#256 = DIRECTION ( 'NONE',  ( 2.134256245050204715E-16, -1.000000000000000000, 0.000000000000000000 ) ) ;
#257 =( GEOMETRIC_REPRESENTATION_CONTEXT ( 3 ) GLOBAL_UNCERTAINTY_ASSIGNED_CONTEXT ( ( #205 ) ) GLOBAL_UNIT_ASSIGNED_CONTEXT ( ( #234, #161, #74 ) ) REPRESENTATION_CONTEXT ( 'NONE', 'WORKASPACE' ) );
#258 = ORIENTED_EDGE ( 'NONE', *, *, #250, .F. ) ;
#259 = LINE ( 'NONE', #322, #165 ) ;
#260 = DIRECTION ( 'NONE',  ( -0.000000000000000000, 0.000000000000000000, 1.000000000000000000 ) ) ;
#261 = DIRECTION ( 'NONE',  ( 0.000000000000000000, 0.000000000000000000, 1.000000000000000000 ) ) ;
#262 = EDGE_CURVE ( 'NONE', #107, #77, #97, .T. ) ;
#263 = VERTEX_POINT ( 'NONE', #252 ) ;
#264 = ORIENTED_EDGE ( 'NONE', *, *, #366, .F. ) ;
#265 = SURFACE_SIDE_STYLE ('',( #104 ) ) ;
#266 = ORIENTED_EDGE ( 'NONE', *, *, #166, .T. ) ;
#267 = CARTESIAN_POINT ( 'NONE',  ( 0.000000000000000000, 0.000000000000000000, -1.000000000000000000 ) ) ;
#268 = EDGE_LOOP ( 'NONE', ( #25, #344, #264, #298 ) ) ;
#269 = CYLINDRICAL_SURFACE ( 'NONE', #394, 0.2600000000000000089 ) ;
#270 = VECTOR ( 'NONE', #230, 39.37007874015748143 ) ;
#271 = DIRECTION ( 'NONE',  ( 1.000000000000000000, 0.000000000000000000, 0.000000000000000000 ) ) ;
#272 = DIRECTION ( 'NONE',  ( 0.000000000000000000, 0.000000000000000000, 1.000000000000000000 ) ) ;
#273 = CARTESIAN_POINT ( 'NONE',  ( -0.1024999999999999939, -2.187612651176461281E-17, -1.000000000000000000 ) ) ;
#274 = CIRCLE ( 'NONE', #306, 0.01499999999999997689 ) ;
#275 = DIRECTION ( 'NONE',  ( 0.000000000000000000, 0.000000000000000000, 1.000000000000000000 ) ) ;
#276 = CYLINDRICAL_SURFACE ( 'NONE', #28, 0.1024999999999999939 ) ;
#277 = CARTESIAN_POINT ( 'NONE',  ( -0.2449999999999999956, 3.092233167847066780E-17, -0.6059999999999999831 ) ) ;
#278 = DIRECTION ( 'NONE',  ( -1.000000000000000000, -2.134256245050204715E-16, 0.000000000000000000 ) ) ;
#279 = ORIENTED_EDGE ( 'NONE', *, *, #139, .F. ) ;
#280 = EDGE_CURVE ( 'NONE', #200, #145, #313, .T. ) ;
#281 = DIRECTION ( 'NONE',  ( 1.000000000000000000, 0.000000000000000000, 0.000000000000000000 ) ) ;
#282 = ADVANCED_FACE ( 'NONE', ( #155 ), #276, .F. ) ;
#283 = CARTESIAN_POINT ( 'NONE',  ( -0.1024999999999999939, 0.03999999999999995226, -1.000000000000000000 ) ) ;
#284 = CIRCLE ( 'NONE', #380, 0.1024999999999999939 ) ;
#285 = PRODUCT_DEFINITION_SHAPE ( 'NONE', 'NONE',  #334 ) ;
#286 = AXIS2_PLACEMENT_3D ( 'NONE', #72, #314, #253 ) ;
#287 = LINE ( 'NONE', #15, #108 ) ;
#288 = ORIENTED_EDGE ( 'NONE', *, *, #182, .T. ) ;
#289 = CARTESIAN_POINT ( 'NONE',  ( -0.1024999999999999939, -2.187612651176461281E-17, -1.000000000000000000 ) ) ;
#290 = DIRECTION ( 'NONE',  ( 1.000000000000000000, 0.000000000000000000, 0.000000000000000000 ) ) ;
#291 = CARTESIAN_POINT ( 'NONE',  ( 0.000000000000000000, 0.000000000000000000, -0.5909999999999999698 ) ) ;
#292 = ORIENTED_EDGE ( 'NONE', *, *, #356, .F. ) ;
#293 = CIRCLE ( 'NONE', #120, 0.1024999999999999939 ) ;
#294 = VECTOR ( 'NONE', #391, 39.37007874015748143 ) ;
#295 = DIRECTION ( 'NONE',  ( 0.000000000000000000, 0.000000000000000000, 1.000000000000000000 ) ) ;
#296 = EDGE_LOOP ( 'NONE', ( #21, #13, #37, #129 ) ) ;
#297 =( CONVERSION_BASED_UNIT ( 'INCH', #354 ) LENGTH_UNIT ( ) NAMED_UNIT ( #303 ) );
#298 = ORIENTED_EDGE ( 'NONE', *, *, #139, .T. ) ;
#299 = CARTESIAN_POINT ( 'NONE',  ( 2.234980408443919276E-17, -0.04000000000000000083, -1.000000000000000000 ) ) ;
#300 = VECTOR ( 'NONE', #171, 39.37007874015748143 ) ;
#301 = DIRECTION ( 'NONE',  ( 2.134256245050206194E-16, -1.000000000000000000, 0.000000000000000000 ) ) ;
#302 = CARTESIAN_POINT ( 'NONE',  ( 0.000000000000000000, 0.000000000000000000, 0.000000000000000000 ) ) ;
#303 = DIMENSIONAL_EXPONENTS ( 1.000000000000000000, 0.000000000000000000, 0.000000000000000000, 0.000000000000000000, 0.000000000000000000, 0.000000000000000000, 0.000000000000000000 ) ;
#304 = CARTESIAN_POINT ( 'NONE',  ( -0.2600000000000000089, 3.184081677783118684E-17, 0.000000000000000000 ) ) ;
#305 = CARTESIAN_POINT ( 'NONE',  ( 0.1024999999999999939, 0.04000000000000004940, -1.000000000000000000 ) ) ;
#306 = AXIS2_PLACEMENT_3D ( 'NONE', #347, #96, #373 ) ;
#307 = PRODUCT_DEFINITION_FORMATION_WITH_SPECIFIED_SOURCE ( 'ANY', '', #11, .NOT_KNOWN. ) ;
#308 = FACE_OUTER_BOUND ( 'NONE', #353, .T. ) ;
#309 = EDGE_CURVE ( 'NONE', #384, #263, #156, .T. ) ;
#310 = FACE_BOUND ( 'NONE', #218, .T. ) ;
#311 = DIRECTION ( 'NONE',  ( 1.000000000000000000, 0.000000000000000000, 0.000000000000000000 ) ) ;
#312 = CIRCLE ( 'NONE', #143, 0.3125000000000000000 ) ;
#313 = CIRCLE ( 'NONE', #333, 0.3125000000000000000 ) ;
#314 = DIRECTION ( 'NONE',  ( -0.000000000000000000, 0.000000000000000000, 1.000000000000000000 ) ) ;
#315 = ORIENTED_EDGE ( 'NONE', *, *, #55, .F. ) ;
#316 = DIRECTION ( 'NONE',  ( 1.000000000000000000, 0.000000000000000000, -0.000000000000000000 ) ) ;
#317 = CLOSED_SHELL ( 'NONE', ( #20, #105, #60, #26, #282, #222, #402, #364, #221, #242, #215, #213, #151 ) ) ;
#318 = LINE ( 'NONE', #82, #136 ) ;
#319 = AXIS2_PLACEMENT_3D ( 'NONE', #291, #22, #18 ) ;
#320 = EDGE_LOOP ( 'NONE', ( #10, #172 ) ) ;
#321 = EDGE_CURVE ( 'NONE', #78, #327, #34, .T. ) ;
#322 = CARTESIAN_POINT ( 'NONE',  ( -0.3125000000000000000, 3.827021247335478926E-17, -1.000000000000000000 ) ) ;
#323 = ORIENTED_EDGE ( 'NONE', *, *, #280, .T. ) ;
#324 = CARTESIAN_POINT ( 'NONE',  ( -0.2600000000000000089, 3.184081677783118684E-17, -0.6059999999999999831 ) ) ;
#325 = CYLINDRICAL_SURFACE ( 'NONE', #210, 0.1024999999999999939 ) ;
#326 = EDGE_CURVE ( 'NONE', #200, #115, #259, .T. ) ;
#327 = VERTEX_POINT ( 'NONE', #197 ) ;
#328 = COLOUR_RGB ( '',0.7921568627450980005, 0.8196078431372548767, 0.9333333333333333481 ) ;
#329 = ORIENTED_EDGE ( 'NONE', *, *, #32, .T. ) ;
#330 = DIRECTION ( 'NONE',  ( 1.000000000000000000, 0.000000000000000000, 0.000000000000000000 ) ) ;
#331 = DIRECTION ( 'NONE',  ( 1.000000000000000000, 0.000000000000000000, 0.000000000000000000 ) ) ;
#332 = DIRECTION ( 'NONE',  ( -1.000000000000000000, -2.134256245050206194E-16, 0.000000000000000000 ) ) ;
#333 = AXIS2_PLACEMENT_3D ( 'NONE', #102, #187, #311 ) ;
#334 = PRODUCT_DEFINITION ( 'UNKNOWN', '', #307, #393 ) ;
#335 = DIRECTION ( 'NONE',  ( -0.000000000000000000, -0.000000000000000000, 1.000000000000000000 ) ) ;
#336 = CARTESIAN_POINT ( 'NONE',  ( -0.1024999999999999939, -2.187612651176461281E-17, -0.6059999999999999831 ) ) ;
#337 = DIRECTION ( 'NONE',  ( -0.000000000000000000, 0.000000000000000000, 1.000000000000000000 ) ) ;
#338 = MECHANICAL_DESIGN_GEOMETRIC_PRESENTATION_REPRESENTATION (  '', ( #128 ), #257 ) ;
#339 = MANIFOLD_SOLID_BREP ( 'Fillet1', #317 ) ;
#340 = CARTESIAN_POINT ( 'NONE',  ( -0.3125000000000000000, 3.827021247335478926E-17, -1.000000000000000000 ) ) ;
#341 = PRODUCT_RELATED_PRODUCT_CATEGORY ( 'part', '', ( #11 ) ) ;
#342 = VERTEX_POINT ( 'NONE', #45 ) ;
#343 = CARTESIAN_POINT ( 'NONE',  ( 0.000000000000000000, 0.000000000000000000, -1.000000000000000000 ) ) ;
#344 = ORIENTED_EDGE ( 'NONE', *, *, #262, .F. ) ;
#345 = FACE_BOUND ( 'NONE', #231, .T. ) ;
#346 = VERTEX_POINT ( 'NONE', #283 ) ;
#347 = CARTESIAN_POINT ( 'NONE',  ( 0.2449999999999999956, 0.000000000000000000, -0.5909999999999999698 ) ) ;
#348 = CARTESIAN_POINT ( 'NONE',  ( 0.000000000000000000, 0.000000000000000000, -1.000000000000000000 ) ) ;
#349 = ORIENTED_EDGE ( 'NONE', *, *, #309, .T. ) ;
#350 = EDGE_LOOP ( 'NONE', ( #193, #203 ) ) ;
#351 =( LENGTH_UNIT ( ) NAMED_UNIT ( * ) SI_UNIT ( $, .METRE. ) );
#352 = AXIS2_PLACEMENT_3D ( 'NONE', #17, #167, #114 ) ;
#353 = EDGE_LOOP ( 'NONE', ( #135, #157, #329, #201 ) ) ;
#354 = LENGTH_MEASURE_WITH_UNIT ( LENGTH_MEASURE( 0.02539999999999999897 ), #351 );
#355 = ORIENTED_EDGE ( 'NONE', *, *, #280, .F. ) ;
#356 = EDGE_CURVE ( 'NONE', #263, #342, #318, .T. ) ;
#357 = ORIENTED_EDGE ( 'NONE', *, *, #247, .F. ) ;
#358 = CARTESIAN_POINT ( 'NONE',  ( 2.234980408443919276E-17, -0.04000000000000000083, -1.000000000000000000 ) ) ;
#359 = ORIENTED_EDGE ( 'NONE', *, *, #113, .T. ) ;
#360 = AXIS2_PLACEMENT_3D ( 'NONE', #348, #5, #92 ) ;
#361 = PRESENTATION_LAYER_ASSIGNMENT (  '', '', ( #128 ) ) ;
#362 = SHAPE_DEFINITION_REPRESENTATION ( #285, #65 ) ;
#363 = DIRECTION ( 'NONE',  ( -0.000000000000000000, 0.000000000000000000, 1.000000000000000000 ) ) ;
#364 = ADVANCED_FACE ( 'NONE', ( #76 ), #202, .T. ) ;
#365 = LINE ( 'NONE', #88, #226 ) ;
#366 = EDGE_CURVE ( 'NONE', #346, #107, #137, .T. ) ;
#367 = DIRECTION ( 'NONE',  ( 0.000000000000000000, 0.000000000000000000, 1.000000000000000000 ) ) ;
#368 = AXIS2_PLACEMENT_3D ( 'NONE', #148, #395, #241 ) ;
#369 = LINE ( 'NONE', #336, #149 ) ;
#370 = CARTESIAN_POINT ( 'NONE',  ( 0.3125000000000000000, 0.000000000000000000, -1.000000000000000000 ) ) ;
#371 = FACE_OUTER_BOUND ( 'NONE', #350, .T. ) ;
#372 = AXIS2_PLACEMENT_3D ( 'NONE', #152, #337, #183 ) ;
#373 = DIRECTION ( 'NONE',  ( 0.000000000000000000, 0.000000000000000000, -1.000000000000000000 ) ) ;
#374 = ORIENTED_EDGE ( 'NONE', *, *, #189, .T. ) ;
#375 = EDGE_CURVE ( 'NONE', #198, #78, #4, .T. ) ;
#376 = CARTESIAN_POINT ( 'NONE',  ( 0.3125000000000000000, 0.000000000000000000, -1.000000000000000000 ) ) ;
#377 = EDGE_LOOP ( 'NONE', ( #23, #16 ) ) ;
#378 = EDGE_CURVE ( 'NONE', #78, #83, #236, .T. ) ;
#379 = CARTESIAN_POINT ( 'NONE',  ( -2.143131898507869145E-18, 0.04000000000000000083, -0.6059999999999999831 ) ) ;
#380 = AXIS2_PLACEMENT_3D ( 'NONE', #134, #223, #281 ) ;
#381 = LINE ( 'NONE', #376, #52 ) ;
#382 = FILL_AREA_STYLE ('',( #169 ) ) ;
#383 = EDGE_CURVE ( 'NONE', #327, #42, #287, .T. ) ;
#384 = VERTEX_POINT ( 'NONE', #49 ) ;
#385 = DIRECTION ( 'NONE',  ( 1.000000000000000000, 0.000000000000000000, 0.000000000000000000 ) ) ;
#386 = ORIENTED_EDGE ( 'NONE', *, *, #255, .T. ) ;
#387 = AXIS2_PLACEMENT_3D ( 'NONE', #343, #43, #63 ) ;
#388 = ORIENTED_EDGE ( 'NONE', *, *, #189, .F. ) ;
#389 = LENGTH_MEASURE_WITH_UNIT ( LENGTH_MEASURE( 0.02539999999999999897 ), #12 );
#390 = ORIENTED_EDGE ( 'NONE', *, *, #321, .F. ) ;
#391 = DIRECTION ( 'NONE',  ( 2.134256245050206194E-16, -1.000000000000000000, 0.000000000000000000 ) ) ;
#392 = CARTESIAN_POINT ( 'NONE',  ( 0.2449999999999999956, 0.000000000000000000, -0.6059999999999999831 ) ) ;
#393 = PRODUCT_DEFINITION_CONTEXT ( 'detailed design', #110, 'design' ) ;
#394 = AXIS2_PLACEMENT_3D ( 'NONE', #246, #335, #31 ) ;
#395 = DIRECTION ( 'NONE',  ( -0.000000000000000000, 0.000000000000000000, 1.000000000000000000 ) ) ;
#396 = AXIS2_PLACEMENT_3D ( 'NONE', #150, #154, #208 ) ;
#397 = CARTESIAN_POINT ( 'NONE',  ( 0.000000000000000000, 0.000000000000000000, -0.5909999999999999698 ) ) ;
#398 = CARTESIAN_POINT ( 'NONE',  ( 0.000000000000000000, 0.000000000000000000, 0.000000000000000000 ) ) ;
#399 = CARTESIAN_POINT ( 'NONE',  ( 0.000000000000000000, 0.000000000000000000, -1.000000000000000000 ) ) ;
#400 = CIRCLE ( 'NONE', #199, 0.2600000000000000089 ) ;
#401 = AXIS2_PLACEMENT_3D ( 'NONE', #254, #124, #316 ) ;
#402 = ADVANCED_FACE ( 'NONE', ( #141 ), #325, .F. ) ;
#403 = CYLINDRICAL_SURFACE ( 'NONE', #251, 0.3125000000000000000 ) ;
ENDSEC;
END-ISO-10303-21;
