ISO-10303-21;
HEADER;
FILE_DESCRIPTION (( 'STEP AP214' ),
    '1' );
FILE_NAME ('BK0030_1030_2030.STEP',
    '2025-04-10T16:45:44',
    ( '' ),
    ( '' ),
    'SwSTEP 2.0',
    'SolidWorks 2023',
    '' );
FILE_SCHEMA (( 'AUTOMOTIVE_DESIGN' ));
ENDSEC;

DATA;
#1 = EDGE_CURVE ( 'NONE', #194, #270, #200, .T. ) ;
#2 =( CONVERSION_BASED_UNIT ( 'INCH', #147 ) LENGTH_UNIT ( ) NAMED_UNIT ( #184 ) );
#3 = ORIENTED_EDGE ( 'NONE', *, *, #1, .F. ) ;
#4 = PRODUCT_RELATED_PRODUCT_CATEGORY ( 'part', '', ( #391 ) ) ;
#5 = CYLINDRICAL_SURFACE ( 'NONE', #96, 0.2600000000000000089 ) ;
#6 = VERTEX_POINT ( 'NONE', #167 ) ;
#7 = LINE ( 'NONE', #347, #397 ) ;
#8 = DIRECTION ( 'NONE',  ( -0.000000000000000000, -0.000000000000000000, 1.000000000000000000 ) ) ;
#9 = VERTEX_POINT ( 'NONE', #165 ) ;
#10 = CARTESIAN_POINT ( 'NONE',  ( -0.1024999999999999939, -0.04000000000000001471, -1.250000000000000000 ) ) ;
#11 = EDGE_LOOP ( 'NONE', ( #66, #266, #136, #153 ) ) ;
#12 = CIRCLE ( 'NONE', #170, 0.01500000000000001159 ) ;
#13 = MECHANICAL_DESIGN_GEOMETRIC_PRESENTATION_REPRESENTATION (  '', ( #37 ), #308 ) ;
#14 =( LENGTH_UNIT ( ) NAMED_UNIT ( * ) SI_UNIT ( $, .METRE. ) );
#15 = EDGE_LOOP ( 'NONE', ( #120, #389, #36, #100 ) ) ;
#16 = FACE_BOUND ( 'NONE', #348, .T. ) ;
#17 = DIRECTION ( 'NONE',  ( 1.000000000000000000, 0.000000000000000000, -0.000000000000000000 ) ) ;
#18 = DIRECTION ( 'NONE',  ( -1.000000000000000000, 1.224646799147352221E-16, 0.000000000000000000 ) ) ;
#19 = EDGE_CURVE ( 'NONE', #325, #376, #371, .T. ) ;
#20 = DIRECTION ( 'NONE',  ( -0.000000000000000000, 0.000000000000000000, 1.000000000000000000 ) ) ;
#21 = DIRECTION ( 'NONE',  ( 1.000000000000000000, 0.000000000000000000, 0.000000000000000000 ) ) ;
#22 = DIRECTION ( 'NONE',  ( -0.000000000000000000, 0.000000000000000000, 1.000000000000000000 ) ) ;
#23 = CARTESIAN_POINT ( 'NONE',  ( -2.143131898507869145E-18, 0.04000000000000000083, -1.250000000000000000 ) ) ;
#24 = SURFACE_SIDE_STYLE ('',( #90 ) ) ;
#25 = ADVANCED_FACE ( 'NONE', ( #297 ), #358, .F. ) ;
#26 = CARTESIAN_POINT ( 'NONE',  ( 0.000000000000000000, 0.000000000000000000, -0.6450000000000001288 ) ) ;
#27 = CARTESIAN_POINT ( 'NONE',  ( 0.000000000000000000, 0.000000000000000000, -0.6450000000000001288 ) ) ;
#28 = VERTEX_POINT ( 'NONE', #240 ) ;
#29 = CIRCLE ( 'NONE', #245, 0.1024999999999999939 ) ;
#30 = EDGE_CURVE ( 'NONE', #185, #380, #283, .T. ) ;
#31 = LINE ( 'NONE', #285, #255 ) ;
#32 = ORIENTED_EDGE ( 'NONE', *, *, #230, .T. ) ;
#33 = DIRECTION ( 'NONE',  ( 1.000000000000000000, 0.000000000000000000, 0.000000000000000000 ) ) ;
#34 = ORIENTED_EDGE ( 'NONE', *, *, #302, .T. ) ;
#35 = DIRECTION ( 'NONE',  ( 0.000000000000000000, 0.000000000000000000, 1.000000000000000000 ) ) ;
#36 = ORIENTED_EDGE ( 'NONE', *, *, #401, .F. ) ;
#37 = STYLED_ITEM ( 'NONE', ( #250 ), #45 ) ;
#38 = DIRECTION ( 'NONE',  ( 1.000000000000000000, 0.000000000000000000, -0.000000000000000000 ) ) ;
#39 = ADVANCED_FACE ( 'NONE', ( #108, #76 ), #205, .T. ) ;
#40 = ORIENTED_EDGE ( 'NONE', *, *, #141, .T. ) ;
#41 = DIRECTION ( 'NONE',  ( 1.000000000000000000, 0.000000000000000000, 0.000000000000000000 ) ) ;
#42 = EDGE_LOOP ( 'NONE', ( #69, #34 ) ) ;
#43 = DIRECTION ( 'NONE',  ( 1.000000000000000000, 0.000000000000000000, 0.000000000000000000 ) ) ;
#44 = ORIENTED_EDGE ( 'NONE', *, *, #357, .T. ) ;
#45 = MANIFOLD_SOLID_BREP ( 'Fillet1', #163 ) ;
#46 = AXIS2_PLACEMENT_3D ( 'NONE', #339, #177, #303 ) ;
#47 = FACE_OUTER_BOUND ( 'NONE', #42, .T. ) ;
#48 = ORIENTED_EDGE ( 'NONE', *, *, #344, .T. ) ;
#49 = CYLINDRICAL_SURFACE ( 'NONE', #150, 0.1024999999999999939 ) ;
#50 = CARTESIAN_POINT ( 'NONE',  ( 2.234980408443919276E-17, -0.04000000000000000083, -0.6600000000000000311 ) ) ;
#51 = DIRECTION ( 'NONE',  ( 1.224646799147353207E-16, 1.000000000000000000, 0.000000000000000000 ) ) ;
#52 =( NAMED_UNIT ( * ) PLANE_ANGLE_UNIT ( ) SI_UNIT ( $, .RADIAN. ) );
#53 = AXIS2_PLACEMENT_3D ( 'NONE', #133, #129, #43 ) ;
#54 = FACE_OUTER_BOUND ( 'NONE', #61, .T. ) ;
#55 = VECTOR ( 'NONE', #111, 39.37007874015748143 ) ;
#56 = CARTESIAN_POINT ( 'NONE',  ( 0.000000000000000000, 0.000000000000000000, 0.000000000000000000 ) ) ;
#57 = DIRECTION ( 'NONE',  ( 0.000000000000000000, 0.000000000000000000, 1.000000000000000000 ) ) ;
#58 = DIRECTION ( 'NONE',  ( 1.000000000000000000, 0.000000000000000000, 0.000000000000000000 ) ) ;
#59 =( NAMED_UNIT ( * ) SI_UNIT ( $, .STERADIAN. ) SOLID_ANGLE_UNIT ( ) );
#60 = ORIENTED_EDGE ( 'NONE', *, *, #30, .F. ) ;
#61 = EDGE_LOOP ( 'NONE', ( #32, #128, #132, #122 ) ) ;
#62 = DIRECTION ( 'NONE',  ( 1.000000000000000000, 0.000000000000000000, 0.000000000000000000 ) ) ;
#63 = CARTESIAN_POINT ( 'NONE',  ( 0.000000000000000000, 0.000000000000000000, -1.250000000000000000 ) ) ;
#64 = ORIENTED_EDGE ( 'NONE', *, *, #141, .F. ) ;
#65 = LINE ( 'NONE', #227, #162 ) ;
#66 = ORIENTED_EDGE ( 'NONE', *, *, #401, .T. ) ;
#67 = CARTESIAN_POINT ( 'NONE',  ( 0.000000000000000000, 0.000000000000000000, -1.250000000000000000 ) ) ;
#68 = CIRCLE ( 'NONE', #169, 0.3125000000000000000 ) ;
#69 = ORIENTED_EDGE ( 'NONE', *, *, #383, .T. ) ;
#70 = CARTESIAN_POINT ( 'NONE',  ( -0.1024999999999999939, 0.03999999999999995226, -1.250000000000000000 ) ) ;
#71 = EDGE_LOOP ( 'NONE', ( #3, #48, #103, #351 ) ) ;
#72 = LINE ( 'NONE', #201, #282 ) ;
#73 = ORIENTED_EDGE ( 'NONE', *, *, #155, .F. ) ;
#74 = CARTESIAN_POINT ( 'NONE',  ( 0.2600000000000000089, 0.000000000000000000, 0.000000000000000000 ) ) ;
#75 = UNCERTAINTY_MEASURE_WITH_UNIT (LENGTH_MEASURE( 1.000000000000000082E-05 ), #2, 'distance_accuracy_value', 'NONE');
#76 = FACE_OUTER_BOUND ( 'NONE', #228, .T. ) ;
#77 = EDGE_CURVE ( 'NONE', #130, #270, #172, .T. ) ;
#78 = AXIS2_PLACEMENT_3D ( 'NONE', #27, #89, #62 ) ;
#79 = VECTOR ( 'NONE', #379, 39.37007874015748143 ) ;
#80 = DIRECTION ( 'NONE',  ( 2.134256245050206194E-16, -1.000000000000000000, 0.000000000000000000 ) ) ;
#81 = ORIENTED_EDGE ( 'NONE', *, *, #216, .T. ) ;
#82 = DIRECTION ( 'NONE',  ( 1.000000000000000000, 0.000000000000000000, 0.000000000000000000 ) ) ;
#83 = EDGE_CURVE ( 'NONE', #325, #353, #364, .T. ) ;
#84 = APPLICATION_CONTEXT ( 'automotive_design' ) ;
#85 = CIRCLE ( 'NONE', #346, 0.3125000000000000000 ) ;
#86 = APPLICATION_PROTOCOL_DEFINITION ( 'draft international standard', 'automotive_design', 1998, #187 ) ;
#87 = AXIS2_PLACEMENT_3D ( 'NONE', #26, #22, #220 ) ;
#88 = PRODUCT_DEFINITION ( 'UNKNOWN', '', #196, #110 ) ;
#89 = DIRECTION ( 'NONE',  ( -0.000000000000000000, 0.000000000000000000, 1.000000000000000000 ) ) ;
#90 = SURFACE_STYLE_FILL_AREA ( #370 ) ;
#91 = EDGE_CURVE ( 'NONE', #376, #325, #154, .T. ) ;
#92 = AXIS2_PLACEMENT_3D ( 'NONE', #299, #335, #176 ) ;
#93 = ORIENTED_EDGE ( 'NONE', *, *, #263, .F. ) ;
#94 = EDGE_LOOP ( 'NONE', ( #310, #93, #253, #142 ) ) ;
#95 = CARTESIAN_POINT ( 'NONE',  ( 0.000000000000000000, 0.000000000000000000, -0.6600000000000000311 ) ) ;
#96 = AXIS2_PLACEMENT_3D ( 'NONE', #95, #8, #256 ) ;
#97 = CIRCLE ( 'NONE', #46, 0.2600000000000000089 ) ;
#98 = CARTESIAN_POINT ( 'NONE',  ( -0.3125000000000000000, 3.827021247335478926E-17, 0.000000000000000000 ) ) ;
#99 = DIRECTION ( 'NONE',  ( 2.134256245050204715E-16, -1.000000000000000000, 0.000000000000000000 ) ) ;
#100 = ORIENTED_EDGE ( 'NONE', *, *, #343, .T. ) ;
#101 = FACE_OUTER_BOUND ( 'NONE', #94, .T. ) ;
#102 = CIRCLE ( 'NONE', #375, 0.3125000000000000000 ) ;
#103 = ORIENTED_EDGE ( 'NONE', *, *, #221, .T. ) ;
#104 = DIRECTION ( 'NONE',  ( 0.000000000000000000, 0.000000000000000000, 1.000000000000000000 ) ) ;
#105 = EDGE_LOOP ( 'NONE', ( #44, #268, #360, #355 ) ) ;
#106 = CARTESIAN_POINT ( 'NONE',  ( 0.1024999999999999939, 0.04000000000000004940, -0.6600000000000000311 ) ) ;
#107 = EDGE_CURVE ( 'NONE', #373, #160, #29, .T. ) ;
#108 = FACE_BOUND ( 'NONE', #288, .T. ) ;
#109 = DIRECTION ( 'NONE',  ( -0.000000000000000000, 0.000000000000000000, 1.000000000000000000 ) ) ;
#110 = PRODUCT_DEFINITION_CONTEXT ( 'detailed design', #84, 'design' ) ;
#111 = DIRECTION ( 'NONE',  ( 0.000000000000000000, 0.000000000000000000, 1.000000000000000000 ) ) ;
#112 = AXIS2_PLACEMENT_3D ( 'NONE', #229, #316, #319 ) ;
#113 = DIRECTION ( 'NONE',  ( 2.134256245050206194E-16, -1.000000000000000000, 0.000000000000000000 ) ) ;
#114 = DIRECTION ( 'NONE',  ( 2.134256245050206194E-16, -1.000000000000000000, 0.000000000000000000 ) ) ;
#115 = ADVANCED_FACE ( 'NONE', ( #149 ), #265, .F. ) ;
#116 = CARTESIAN_POINT ( 'NONE',  ( -2.143131898507869145E-18, 0.04000000000000000083, -0.6600000000000000311 ) ) ;
#117 = SURFACE_STYLE_USAGE ( .BOTH. , #24 ) ;
#118 = DIRECTION ( 'NONE',  ( -0.000000000000000000, -0.000000000000000000, 1.000000000000000000 ) ) ;
#119 = AXIS2_PLACEMENT_3D ( 'NONE', #388, #236, #21 ) ;
#120 = ORIENTED_EDGE ( 'NONE', *, *, #107, .T. ) ;
#121 = CARTESIAN_POINT ( 'NONE',  ( 0.000000000000000000, 0.000000000000000000, -0.6450000000000001288 ) ) ;
#122 = ORIENTED_EDGE ( 'NONE', *, *, #221, .F. ) ;
#123 = EDGE_CURVE ( 'NONE', #327, #281, #313, .T. ) ;
#124 = FACE_OUTER_BOUND ( 'NONE', #171, .T. ) ;
#125 = ORIENTED_EDGE ( 'NONE', *, *, #218, .T. ) ;
#126 = CARTESIAN_POINT ( 'NONE',  ( 0.1025000000000000216, -0.03999999999999998002, -1.250000000000000000 ) ) ;
#127 = AXIS2_PLACEMENT_3D ( 'NONE', #203, #274, #361 ) ;
#128 = ORIENTED_EDGE ( 'NONE', *, *, #1, .T. ) ;
#129 = DIRECTION ( 'NONE',  ( 0.000000000000000000, 0.000000000000000000, 1.000000000000000000 ) ) ;
#130 = VERTEX_POINT ( 'NONE', #181 ) ;
#131 = CARTESIAN_POINT ( 'NONE',  ( -0.3125000000000000000, 3.827021247335478926E-17, -1.250000000000000000 ) ) ;
#132 = ORIENTED_EDGE ( 'NONE', *, *, #77, .F. ) ;
#133 = CARTESIAN_POINT ( 'NONE',  ( 2.234980408443919276E-17, -0.04000000000000000083, -1.250000000000000000 ) ) ;
#134 = ADVANCED_BREP_SHAPE_REPRESENTATION ( 'BK0030_1030_2030', ( #45, #321 ), #223 ) ;
#135 = VECTOR ( 'NONE', #161, 39.37007874015748143 ) ;
#136 = ORIENTED_EDGE ( 'NONE', *, *, #123, .T. ) ;
#137 = DIRECTION ( 'NONE',  ( 1.000000000000000000, 0.000000000000000000, 0.000000000000000000 ) ) ;
#138 = ORIENTED_EDGE ( 'NONE', *, *, #230, .F. ) ;
#139 = PLANE ( 'NONE',  #294 ) ;
#140 = EDGE_LOOP ( 'NONE', ( #315, #385, #81, #295 ) ) ;
#141 = EDGE_CURVE ( 'NONE', #376, #174, #210, .T. ) ;
#142 = ORIENTED_EDGE ( 'NONE', *, *, #215, .T. ) ;
#143 = CIRCLE ( 'NONE', #112, 0.01499999999999997689 ) ;
#144 = LINE ( 'NONE', #207, #312 ) ;
#145 = FACE_OUTER_BOUND ( 'NONE', #140, .T. ) ;
#146 = EDGE_CURVE ( 'NONE', #174, #353, #97, .T. ) ;
#147 = LENGTH_MEASURE_WITH_UNIT ( LENGTH_MEASURE( 0.02539999999999999897 ), #277 );
#148 = ADVANCED_FACE ( 'NONE', ( #145 ), #279, .F. ) ;
#149 = FACE_OUTER_BOUND ( 'NONE', #226, .T. ) ;
#150 = AXIS2_PLACEMENT_3D ( 'NONE', #23, #331, #267 ) ;
#151 = EDGE_CURVE ( 'NONE', #353, #174, #278, .T. ) ;
#152 = ADVANCED_FACE ( 'NONE', ( #398 ), #179, .T. ) ;
#153 = ORIENTED_EDGE ( 'NONE', *, *, #218, .F. ) ;
#154 = CIRCLE ( 'NONE', #212, 0.2600000000000000089 ) ;
#155 = EDGE_CURVE ( 'NONE', #373, #380, #31, .T. ) ;
#156 = ORIENTED_EDGE ( 'NONE', *, *, #151, .F. ) ;
#157 = CARTESIAN_POINT ( 'NONE',  ( 0.2600000000000000089, 0.000000000000000000, -0.6600000000000000311 ) ) ;
#158 = ORIENTED_EDGE ( 'NONE', *, *, #146, .F. ) ;
#159 = DIRECTION ( 'NONE',  ( 0.000000000000000000, 0.000000000000000000, 1.000000000000000000 ) ) ;
#160 = VERTEX_POINT ( 'NONE', #326 ) ;
#161 = DIRECTION ( 'NONE',  ( 0.000000000000000000, 0.000000000000000000, 1.000000000000000000 ) ) ;
#162 = VECTOR ( 'NONE', #159, 39.37007874015748143 ) ;
#163 = CLOSED_SHELL ( 'NONE', ( #115, #233, #394, #25, #369, #276, #318, #152, #246, #39, #363, #372, #148 ) ) ;
#164 = CARTESIAN_POINT ( 'NONE',  ( 0.1025000000000000216, 2.187612651176460049E-17, -1.250000000000000000 ) ) ;
#165 = CARTESIAN_POINT ( 'NONE',  ( 0.2449999999999999956, 0.000000000000000000, -0.6600000000000000311 ) ) ;
#166 = FACE_OUTER_BOUND ( 'NONE', #198, .T. ) ;
#167 = CARTESIAN_POINT ( 'NONE',  ( -0.2449999999999999956, 3.092233167847066780E-17, -0.6600000000000000311 ) ) ;
#168 = CARTESIAN_POINT ( 'NONE',  ( 0.000000000000000000, 0.000000000000000000, -1.250000000000000000 ) ) ;
#169 = AXIS2_PLACEMENT_3D ( 'NONE', #384, #104, #356 ) ;
#170 = AXIS2_PLACEMENT_3D ( 'NONE', #243, #51, #18 ) ;
#171 = EDGE_LOOP ( 'NONE', ( #382, #73, #262, #125 ) ) ;
#172 = CIRCLE ( 'NONE', #248, 0.3125000000000000000 ) ;
#173 = FACE_OUTER_BOUND ( 'NONE', #15, .T. ) ;
#174 = VERTEX_POINT ( 'NONE', #195 ) ;
#175 = DIRECTION ( 'NONE',  ( 1.000000000000000000, 0.000000000000000000, 0.000000000000000000 ) ) ;
#176 = DIRECTION ( 'NONE',  ( 1.000000000000000000, 0.000000000000000000, 0.000000000000000000 ) ) ;
#177 = DIRECTION ( 'NONE',  ( -0.000000000000000000, 0.000000000000000000, 1.000000000000000000 ) ) ;
#178 = CIRCLE ( 'NONE', #183, 0.2449999999999999956 ) ;
#179 = CYLINDRICAL_SURFACE ( 'NONE', #257, 0.3125000000000000000 ) ;
#180 = CARTESIAN_POINT ( 'NONE',  ( 0.000000000000000000, 0.000000000000000000, -0.6600000000000000311 ) ) ;
#181 = CARTESIAN_POINT ( 'NONE',  ( 0.3125000000000000000, 0.000000000000000000, 0.000000000000000000 ) ) ;
#182 = DIRECTION ( 'NONE',  ( 1.000000000000000000, 0.000000000000000000, 0.000000000000000000 ) ) ;
#183 = AXIS2_PLACEMENT_3D ( 'NONE', #180, #109, #137 ) ;
#184 = DIMENSIONAL_EXPONENTS ( 1.000000000000000000, 0.000000000000000000, 0.000000000000000000, 0.000000000000000000, 0.000000000000000000, 0.000000000000000000, 0.000000000000000000 ) ;
#185 = VERTEX_POINT ( 'NONE', #259 ) ;
#186 = ORIENTED_EDGE ( 'NONE', *, *, #77, .T. ) ;
#187 = APPLICATION_CONTEXT ( 'automotive_design' ) ;
#188 = VECTOR ( 'NONE', #113, 39.37007874015748143 ) ;
#189 = CARTESIAN_POINT ( 'NONE',  ( 0.000000000000000000, 0.000000000000000000, -1.250000000000000000 ) ) ;
#190 = ORIENTED_EDGE ( 'NONE', *, *, #396, .T. ) ;
#191 = CARTESIAN_POINT ( 'NONE',  ( 0.000000000000000000, 0.000000000000000000, -0.6600000000000000311 ) ) ;
#192 = ORIENTED_EDGE ( 'NONE', *, *, #151, .T. ) ;
#193 = DIRECTION ( 'NONE',  ( 2.134256245050204715E-16, -1.000000000000000000, 0.000000000000000000 ) ) ;
#194 = VERTEX_POINT ( 'NONE', #131 ) ;
#195 = CARTESIAN_POINT ( 'NONE',  ( -0.2600000000000000089, 3.184081677783118684E-17, 0.000000000000000000 ) ) ;
#196 = PRODUCT_DEFINITION_FORMATION_WITH_SPECIFIED_SOURCE ( 'ANY', '', #391, .NOT_KNOWN. ) ;
#197 = PRESENTATION_LAYER_ASSIGNMENT (  '', '', ( #37 ) ) ;
#198 = EDGE_LOOP ( 'NONE', ( #329, #40, #249, #311 ) ) ;
#199 = CARTESIAN_POINT ( 'NONE',  ( 0.2600000000000000089, 0.000000000000000000, -0.6450000000000001288 ) ) ;
#200 = LINE ( 'NONE', #235, #55 ) ;
#201 = CARTESIAN_POINT ( 'NONE',  ( 0.1024999999999999939, 0.04000000000000004940, -1.250000000000000000 ) ) ;
#202 = ORIENTED_EDGE ( 'NONE', *, *, #216, .F. ) ;
#203 = CARTESIAN_POINT ( 'NONE',  ( 0.000000000000000000, 0.000000000000000000, -0.6600000000000000311 ) ) ;
#204 = AXIS2_PLACEMENT_3D ( 'NONE', #63, #324, #38 ) ;
#205 = PLANE ( 'NONE',  #392 ) ;
#206 = COLOUR_RGB ( '',0.7921568627450980005, 0.8196078431372548767, 0.9333333333333333481 ) ;
#207 = CARTESIAN_POINT ( 'NONE',  ( -0.1024999999999999939, -2.187612651176461281E-17, -0.6600000000000000311 ) ) ;
#208 = VERTEX_POINT ( 'NONE', #286 ) ;
#209 =( NAMED_UNIT ( * ) SI_UNIT ( $, .STERADIAN. ) SOLID_ANGLE_UNIT ( ) );
#210 = LINE ( 'NONE', #280, #225 ) ;
#211 = DIRECTION ( 'NONE',  ( -0.000000000000000000, 0.000000000000000000, 1.000000000000000000 ) ) ;
#212 = AXIS2_PLACEMENT_3D ( 'NONE', #121, #400, #182 ) ;
#213 =( NAMED_UNIT ( * ) PLANE_ANGLE_UNIT ( ) SI_UNIT ( $, .RADIAN. ) );
#214 = CARTESIAN_POINT ( 'NONE',  ( 0.000000000000000000, 0.000000000000000000, 0.000000000000000000 ) ) ;
#215 = EDGE_CURVE ( 'NONE', #327, #185, #231, .T. ) ;
#216 = EDGE_CURVE ( 'NONE', #9, #325, #143, .T. ) ;
#217 = DIMENSIONAL_EXPONENTS ( 1.000000000000000000, 0.000000000000000000, 0.000000000000000000, 0.000000000000000000, 0.000000000000000000, 0.000000000000000000, 0.000000000000000000 ) ;
#218 = EDGE_CURVE ( 'NONE', #28, #281, #7, .T. ) ;
#219 = APPLICATION_PROTOCOL_DEFINITION ( 'draft international standard', 'automotive_design', 1998, #84 ) ;
#220 = DIRECTION ( 'NONE',  ( 1.000000000000000000, 0.000000000000000000, 0.000000000000000000 ) ) ;
#221 = EDGE_CURVE ( 'NONE', #284, #130, #65, .T. ) ;
#222 = ORIENTED_EDGE ( 'NONE', *, *, #344, .F. ) ;
#223 =( GEOMETRIC_REPRESENTATION_CONTEXT ( 3 ) GLOBAL_UNCERTAINTY_ASSIGNED_CONTEXT ( ( #237 ) ) GLOBAL_UNIT_ASSIGNED_CONTEXT ( ( #390, #213, #209 ) ) REPRESENTATION_CONTEXT ( 'NONE', 'WORKASPACE' ) );
#224 = FACE_BOUND ( 'NONE', #11, .T. ) ;
#225 = VECTOR ( 'NONE', #306, 39.37007874015748143 ) ;
#226 = EDGE_LOOP ( 'NONE', ( #251, #190, #345, #202 ) ) ;
#227 = CARTESIAN_POINT ( 'NONE',  ( 0.3125000000000000000, 0.000000000000000000, -1.250000000000000000 ) ) ;
#228 = EDGE_LOOP ( 'NONE', ( #186, #362 ) ) ;
#229 = CARTESIAN_POINT ( 'NONE',  ( 0.2449999999999999956, 0.000000000000000000, -0.6450000000000001288 ) ) ;
#230 = EDGE_CURVE ( 'NONE', #284, #194, #102, .T. ) ;
#231 = LINE ( 'NONE', #10, #79 ) ;
#232 = ORIENTED_EDGE ( 'NONE', *, *, #155, .T. ) ;
#233 = ADVANCED_FACE ( 'NONE', ( #166 ), #5, .F. ) ;
#234 = DIRECTION ( 'NONE',  ( 1.000000000000000000, 0.000000000000000000, 0.000000000000000000 ) ) ;
#235 = CARTESIAN_POINT ( 'NONE',  ( -0.3125000000000000000, 3.827021247335478926E-17, -1.250000000000000000 ) ) ;
#236 = DIRECTION ( 'NONE',  ( -0.000000000000000000, 0.000000000000000000, 1.000000000000000000 ) ) ;
#237 = UNCERTAINTY_MEASURE_WITH_UNIT (LENGTH_MEASURE( 1.000000000000000082E-05 ), #390, 'distance_accuracy_value', 'NONE');
#238 = EDGE_LOOP ( 'NONE', ( #64, #260, #320, #192 ) ) ;
#239 = LENGTH_MEASURE_WITH_UNIT ( LENGTH_MEASURE( 0.02539999999999999897 ), #14 );
#240 = CARTESIAN_POINT ( 'NONE',  ( 0.1024999999999999939, 0.04000000000000004940, -1.250000000000000000 ) ) ;
#241 = DIRECTION ( 'NONE',  ( 1.000000000000000000, 0.000000000000000000, 0.000000000000000000 ) ) ;
#242 = LINE ( 'NONE', #296, #188 ) ;
#243 = CARTESIAN_POINT ( 'NONE',  ( -0.2449999999999999956, 3.000384657911014877E-17, -0.6450000000000001288 ) ) ;
#244 = DIRECTION ( 'NONE',  ( 1.000000000000000000, 0.000000000000000000, 0.000000000000000000 ) ) ;
#245 = AXIS2_PLACEMENT_3D ( 'NONE', #116, #307, #305 ) ;
#246 = ADVANCED_FACE ( 'NONE', ( #224, #261 ), #378, .F. ) ;
#247 = PRODUCT_CONTEXT ( 'NONE', #187, 'mechanical' ) ;
#248 = AXIS2_PLACEMENT_3D ( 'NONE', #214, #395, #244 ) ;
#249 = ORIENTED_EDGE ( 'NONE', *, *, #146, .T. ) ;
#250 = PRESENTATION_STYLE_ASSIGNMENT (( #117 ) ) ;
#251 = ORIENTED_EDGE ( 'NONE', *, *, #302, .F. ) ;
#252 = DIRECTION ( 'NONE',  ( 0.000000000000000000, 0.000000000000000000, 1.000000000000000000 ) ) ;
#253 = ORIENTED_EDGE ( 'NONE', *, *, #123, .F. ) ;
#254 = CIRCLE ( 'NONE', #330, 0.2449999999999999956 ) ;
#255 = VECTOR ( 'NONE', #99, 39.37007874015748143 ) ;
#256 = DIRECTION ( 'NONE',  ( 1.000000000000000000, 0.000000000000000000, 0.000000000000000000 ) ) ;
#257 = AXIS2_PLACEMENT_3D ( 'NONE', #189, #314, #58 ) ;
#258 = ORIENTED_EDGE ( 'NONE', *, *, #357, .F. ) ;
#259 = CARTESIAN_POINT ( 'NONE',  ( -0.1024999999999999939, -0.04000000000000001471, -0.6600000000000000311 ) ) ;
#260 = ORIENTED_EDGE ( 'NONE', *, *, #91, .T. ) ;
#261 = FACE_OUTER_BOUND ( 'NONE', #403, .T. ) ;
#262 = ORIENTED_EDGE ( 'NONE', *, *, #343, .F. ) ;
#263 = EDGE_CURVE ( 'NONE', #281, #380, #387, .T. ) ;
#264 = CARTESIAN_POINT ( 'NONE',  ( -0.1024999999999999939, -0.04000000000000001471, -1.250000000000000000 ) ) ;
#265 = TOROIDAL_SURFACE ( 'NONE', #87, 0.2449999999999999956, 0.01499999999999999944 ) ;
#266 = ORIENTED_EDGE ( 'NONE', *, *, #367, .T. ) ;
#267 = DIRECTION ( 'NONE',  ( 1.000000000000000000, 0.000000000000000000, 0.000000000000000000 ) ) ;
#268 = ORIENTED_EDGE ( 'NONE', *, *, #215, .F. ) ;
#269 = CARTESIAN_POINT ( 'NONE',  ( 0.000000000000000000, 0.000000000000000000, -0.6600000000000000311 ) ) ;
#270 = VERTEX_POINT ( 'NONE', #98 ) ;
#271 = DIRECTION ( 'NONE',  ( 0.000000000000000000, 0.000000000000000000, 1.000000000000000000 ) ) ;
#272 = VECTOR ( 'NONE', #252, 39.37007874015748143 ) ;
#273 = DIRECTION ( 'NONE',  ( 1.000000000000000000, 0.000000000000000000, 0.000000000000000000 ) ) ;
#274 = DIRECTION ( 'NONE',  ( -0.000000000000000000, -0.000000000000000000, 1.000000000000000000 ) ) ;
#275 = DIRECTION ( 'NONE',  ( -0.000000000000000000, 0.000000000000000000, 1.000000000000000000 ) ) ;
#276 = ADVANCED_FACE ( 'NONE', ( #124 ), #291, .T. ) ;
#277 =( LENGTH_UNIT ( ) NAMED_UNIT ( * ) SI_UNIT ( $, .METRE. ) );
#278 = CIRCLE ( 'NONE', #332, 0.2600000000000000089 ) ;
#279 = TOROIDAL_SURFACE ( 'NONE', #78, 0.2449999999999999956, 0.01499999999999999944 ) ;
#280 = CARTESIAN_POINT ( 'NONE',  ( -0.2600000000000000089, 3.184081677783118684E-17, -0.6600000000000000311 ) ) ;
#281 = VERTEX_POINT ( 'NONE', #289 ) ;
#282 = VECTOR ( 'NONE', #328, 39.37007874015748143 ) ;
#283 = CIRCLE ( 'NONE', #377, 0.1024999999999999939 ) ;
#284 = VERTEX_POINT ( 'NONE', #293 ) ;
#285 = CARTESIAN_POINT ( 'NONE',  ( 0.1025000000000000216, 2.187612651176460049E-17, -0.6600000000000000311 ) ) ;
#286 = CARTESIAN_POINT ( 'NONE',  ( -0.1024999999999999939, 0.03999999999999995226, -1.250000000000000000 ) ) ;
#287 = CYLINDRICAL_SURFACE ( 'NONE', #53, 0.1024999999999999939 ) ;
#288 = EDGE_LOOP ( 'NONE', ( #156, #158 ) ) ;
#289 = CARTESIAN_POINT ( 'NONE',  ( 0.1025000000000000216, -0.04000000000000000083, -1.250000000000000000 ) ) ;
#290 = DIRECTION ( 'NONE',  ( -1.000000000000000000, -2.134256245050206194E-16, 0.000000000000000000 ) ) ;
#291 = PLANE ( 'NONE',  #301 ) ;
#292 = CARTESIAN_POINT ( 'NONE',  ( -0.1024999999999999939, -2.187612651176461281E-17, -1.250000000000000000 ) ) ;
#293 = CARTESIAN_POINT ( 'NONE',  ( 0.3125000000000000000, 0.000000000000000000, -1.250000000000000000 ) ) ;
#294 = AXIS2_PLACEMENT_3D ( 'NONE', #269, #300, #175 ) ;
#295 = ORIENTED_EDGE ( 'NONE', *, *, #91, .F. ) ;
#296 = CARTESIAN_POINT ( 'NONE',  ( -0.1024999999999999939, -2.187612651176461281E-17, -1.250000000000000000 ) ) ;
#297 = FACE_OUTER_BOUND ( 'NONE', #105, .T. ) ;
#298 = CARTESIAN_POINT ( 'NONE',  ( 0.1025000000000000216, -0.03999999999999998002, -0.6600000000000000311 ) ) ;
#299 = CARTESIAN_POINT ( 'NONE',  ( 0.000000000000000000, 0.000000000000000000, -0.6450000000000001288 ) ) ;
#300 = DIRECTION ( 'NONE',  ( -0.000000000000000000, 0.000000000000000000, 1.000000000000000000 ) ) ;
#301 = AXIS2_PLACEMENT_3D ( 'NONE', #164, #349, #193 ) ;
#302 = EDGE_CURVE ( 'NONE', #6, #9, #254, .T. ) ;
#303 = DIRECTION ( 'NONE',  ( 1.000000000000000000, 0.000000000000000000, 0.000000000000000000 ) ) ;
#304 = FACE_OUTER_BOUND ( 'NONE', #238, .T. ) ;
#305 = DIRECTION ( 'NONE',  ( 1.000000000000000000, 0.000000000000000000, 0.000000000000000000 ) ) ;
#306 = DIRECTION ( 'NONE',  ( -0.000000000000000000, -0.000000000000000000, 1.000000000000000000 ) ) ;
#307 = DIRECTION ( 'NONE',  ( -0.000000000000000000, 0.000000000000000000, 1.000000000000000000 ) ) ;
#308 =( GEOMETRIC_REPRESENTATION_CONTEXT ( 3 ) GLOBAL_UNCERTAINTY_ASSIGNED_CONTEXT ( ( #75 ) ) GLOBAL_UNIT_ASSIGNED_CONTEXT ( ( #2, #52, #59 ) ) REPRESENTATION_CONTEXT ( 'NONE', 'WORKASPACE' ) );
#309 = SHAPE_DEFINITION_REPRESENTATION ( #350, #134 ) ;
#310 = ORIENTED_EDGE ( 'NONE', *, *, #30, .T. ) ;
#311 = ORIENTED_EDGE ( 'NONE', *, *, #83, .F. ) ;
#312 = VECTOR ( 'NONE', #80, 39.37007874015748143 ) ;
#313 = CIRCLE ( 'NONE', #399, 0.1024999999999999939 ) ;
#314 = DIRECTION ( 'NONE',  ( 0.000000000000000000, 0.000000000000000000, 1.000000000000000000 ) ) ;
#315 = ORIENTED_EDGE ( 'NONE', *, *, #396, .F. ) ;
#316 = DIRECTION ( 'NONE',  ( 0.000000000000000000, -1.000000000000000000, 0.000000000000000000 ) ) ;
#317 = ORIENTED_EDGE ( 'NONE', *, *, #107, .F. ) ;
#318 = ADVANCED_FACE ( 'NONE', ( #101 ), #287, .F. ) ;
#319 = DIRECTION ( 'NONE',  ( 0.000000000000000000, 0.000000000000000000, -1.000000000000000000 ) ) ;
#320 = ORIENTED_EDGE ( 'NONE', *, *, #83, .T. ) ;
#321 = AXIS2_PLACEMENT_3D ( 'NONE', #341, #57, #359 ) ;
#322 = AXIS2_PLACEMENT_3D ( 'NONE', #292, #290, #114 ) ;
#323 = EDGE_CURVE ( 'NONE', #208, #160, #354, .T. ) ;
#324 = DIRECTION ( 'NONE',  ( 0.000000000000000000, 0.000000000000000000, 1.000000000000000000 ) ) ;
#325 = VERTEX_POINT ( 'NONE', #199 ) ;
#326 = CARTESIAN_POINT ( 'NONE',  ( -0.1024999999999999939, 0.03999999999999995226, -0.6600000000000000311 ) ) ;
#327 = VERTEX_POINT ( 'NONE', #264 ) ;
#328 = DIRECTION ( 'NONE',  ( 0.000000000000000000, 0.000000000000000000, 1.000000000000000000 ) ) ;
#329 = ORIENTED_EDGE ( 'NONE', *, *, #19, .T. ) ;
#330 = AXIS2_PLACEMENT_3D ( 'NONE', #191, #381, #234 ) ;
#331 = DIRECTION ( 'NONE',  ( 0.000000000000000000, 0.000000000000000000, 1.000000000000000000 ) ) ;
#332 = AXIS2_PLACEMENT_3D ( 'NONE', #56, #275, #342 ) ;
#333 = DIRECTION ( 'NONE',  ( 0.000000000000000000, 0.000000000000000000, 1.000000000000000000 ) ) ;
#334 = CYLINDRICAL_SURFACE ( 'NONE', #127, 0.2600000000000000089 ) ;
#335 = DIRECTION ( 'NONE',  ( 0.000000000000000000, -0.000000000000000000, -1.000000000000000000 ) ) ;
#336 = CYLINDRICAL_SURFACE ( 'NONE', #338, 0.3125000000000000000 ) ;
#337 = EDGE_CURVE ( 'NONE', #270, #130, #68, .T. ) ;
#338 = AXIS2_PLACEMENT_3D ( 'NONE', #365, #271, #241 ) ;
#339 = CARTESIAN_POINT ( 'NONE',  ( 0.000000000000000000, 0.000000000000000000, 0.000000000000000000 ) ) ;
#340 = VECTOR ( 'NONE', #118, 39.37007874015748143 ) ;
#341 = CARTESIAN_POINT ( 'NONE',  ( 0.000000000000000000, 0.000000000000000000, 0.000000000000000000 ) ) ;
#342 = DIRECTION ( 'NONE',  ( 1.000000000000000000, 0.000000000000000000, 0.000000000000000000 ) ) ;
#343 = EDGE_CURVE ( 'NONE', #28, #373, #72, .T. ) ;
#344 = EDGE_CURVE ( 'NONE', #194, #284, #85, .T. ) ;
#345 = ORIENTED_EDGE ( 'NONE', *, *, #19, .F. ) ;
#346 = AXIS2_PLACEMENT_3D ( 'NONE', #168, #374, #33 ) ;
#347 = CARTESIAN_POINT ( 'NONE',  ( 0.1025000000000000216, 2.187612651176460049E-17, -1.250000000000000000 ) ) ;
#348 = EDGE_LOOP ( 'NONE', ( #60, #258, #317, #232 ) ) ;
#349 = DIRECTION ( 'NONE',  ( -1.000000000000000000, -2.134256245050204715E-16, 0.000000000000000000 ) ) ;
#350 = PRODUCT_DEFINITION_SHAPE ( 'NONE', 'NONE',  #88 ) ;
#351 = ORIENTED_EDGE ( 'NONE', *, *, #337, .F. ) ;
#352 = DIRECTION ( 'NONE',  ( 2.134256245050204715E-16, -1.000000000000000000, 0.000000000000000000 ) ) ;
#353 = VERTEX_POINT ( 'NONE', #74 ) ;
#354 = LINE ( 'NONE', #70, #272 ) ;
#355 = ORIENTED_EDGE ( 'NONE', *, *, #323, .T. ) ;
#356 = DIRECTION ( 'NONE',  ( 1.000000000000000000, 0.000000000000000000, 0.000000000000000000 ) ) ;
#357 = EDGE_CURVE ( 'NONE', #160, #185, #144, .T. ) ;
#358 = PLANE ( 'NONE',  #322 ) ;
#359 = DIRECTION ( 'NONE',  ( 1.000000000000000000, 0.000000000000000000, 0.000000000000000000 ) ) ;
#360 = ORIENTED_EDGE ( 'NONE', *, *, #367, .F. ) ;
#361 = DIRECTION ( 'NONE',  ( 1.000000000000000000, 0.000000000000000000, 0.000000000000000000 ) ) ;
#362 = ORIENTED_EDGE ( 'NONE', *, *, #337, .T. ) ;
#363 = ADVANCED_FACE ( 'NONE', ( #304 ), #334, .F. ) ;
#364 = LINE ( 'NONE', #157, #340 ) ;
#365 = CARTESIAN_POINT ( 'NONE',  ( 0.000000000000000000, 0.000000000000000000, -1.250000000000000000 ) ) ;
#366 = FILL_AREA_STYLE_COLOUR ( '', #206 ) ;
#367 = EDGE_CURVE ( 'NONE', #208, #327, #242, .T. ) ;
#368 = CARTESIAN_POINT ( 'NONE',  ( 2.234980408443919276E-17, -0.04000000000000000083, -1.250000000000000000 ) ) ;
#369 = ADVANCED_FACE ( 'NONE', ( #173 ), #49, .F. ) ;
#370 = FILL_AREA_STYLE ('',( #366 ) ) ;
#371 = CIRCLE ( 'NONE', #92, 0.2600000000000000089 ) ;
#372 = ADVANCED_FACE ( 'NONE', ( #47, #16 ), #139, .T. ) ;
#373 = VERTEX_POINT ( 'NONE', #106 ) ;
#374 = DIRECTION ( 'NONE',  ( 0.000000000000000000, 0.000000000000000000, 1.000000000000000000 ) ) ;
#375 = AXIS2_PLACEMENT_3D ( 'NONE', #67, #35, #41 ) ;
#376 = VERTEX_POINT ( 'NONE', #386 ) ;
#377 = AXIS2_PLACEMENT_3D ( 'NONE', #50, #20, #273 ) ;
#378 = PLANE ( 'NONE',  #204 ) ;
#379 = DIRECTION ( 'NONE',  ( 0.000000000000000000, 0.000000000000000000, 1.000000000000000000 ) ) ;
#380 = VERTEX_POINT ( 'NONE', #298 ) ;
#381 = DIRECTION ( 'NONE',  ( -0.000000000000000000, 0.000000000000000000, 1.000000000000000000 ) ) ;
#382 = ORIENTED_EDGE ( 'NONE', *, *, #263, .T. ) ;
#383 = EDGE_CURVE ( 'NONE', #9, #6, #178, .T. ) ;
#384 = CARTESIAN_POINT ( 'NONE',  ( 0.000000000000000000, 0.000000000000000000, 0.000000000000000000 ) ) ;
#385 = ORIENTED_EDGE ( 'NONE', *, *, #383, .F. ) ;
#386 = CARTESIAN_POINT ( 'NONE',  ( -0.2600000000000000089, 3.184081677783118684E-17, -0.6450000000000001288 ) ) ;
#387 = LINE ( 'NONE', #126, #135 ) ;
#388 = CARTESIAN_POINT ( 'NONE',  ( -2.143131898507869145E-18, 0.04000000000000000083, -1.250000000000000000 ) ) ;
#389 = ORIENTED_EDGE ( 'NONE', *, *, #323, .F. ) ;
#390 =( CONVERSION_BASED_UNIT ( 'INCH', #239 ) LENGTH_UNIT ( ) NAMED_UNIT ( #217 ) );
#391 = PRODUCT ( 'BK0030_1030_2030', 'BK0030_1030_2030', '', ( #247 ) ) ;
#392 = AXIS2_PLACEMENT_3D ( 'NONE', #393, #333, #17 ) ;
#393 = CARTESIAN_POINT ( 'NONE',  ( 0.000000000000000000, 0.000000000000000000, 0.000000000000000000 ) ) ;
#394 = ADVANCED_FACE ( 'NONE', ( #54 ), #336, .T. ) ;
#395 = DIRECTION ( 'NONE',  ( 0.000000000000000000, 0.000000000000000000, 1.000000000000000000 ) ) ;
#396 = EDGE_CURVE ( 'NONE', #6, #376, #12, .T. ) ;
#397 = VECTOR ( 'NONE', #352, 39.37007874015748143 ) ;
#398 = FACE_OUTER_BOUND ( 'NONE', #71, .T. ) ;
#399 = AXIS2_PLACEMENT_3D ( 'NONE', #368, #211, #82 ) ;
#400 = DIRECTION ( 'NONE',  ( 0.000000000000000000, -0.000000000000000000, -1.000000000000000000 ) ) ;
#401 = EDGE_CURVE ( 'NONE', #28, #208, #402, .T. ) ;
#402 = CIRCLE ( 'NONE', #119, 0.1024999999999999939 ) ;
#403 = EDGE_LOOP ( 'NONE', ( #138, #222 ) ) ;
ENDSEC;
END-ISO-10303-21;
