ISO-10303-21;
HEADER;
FILE_DESCRIPTION (( 'STEP AP214' ),
    '1' );
FILE_NAME ('SK5001.STEP',
    '2025-04-16T19:55:24',
    ( '' ),
    ( '' ),
    'SwSTEP 2.0',
    'SolidWorks 2023',
    '' );
FILE_SCHEMA (( 'AUTOMOTIVE_DESIGN' ));
ENDSEC;

DATA;
#1 = DIRECTION ( 'NONE',  ( 0.000000000000000000, 1.000000000000000000, -0.000000000000000000 ) ) ;
#2 = ADVANCED_FACE ( 'NONE', ( #131 ), #239, .F. ) ;
#3 = DIRECTION ( 'NONE',  ( -1.202231228649118830E-16, 0.000000000000000000, -1.000000000000000000 ) ) ;
#4 = CARTESIAN_POINT ( 'NONE',  ( 0.000000000000000000, 0.5080000000000000071, 0.000000000000000000 ) ) ;
#5 = CARTESIAN_POINT ( 'NONE',  ( -0.1249999999999998612, 0.5080000000000000071, 5.916879772312430674 ) ) ;
#6 = EDGE_CURVE ( 'NONE', #13, #56, #214, .T. ) ;
#7 =( NAMED_UNIT ( * ) PLANE_ANGLE_UNIT ( ) SI_UNIT ( $, .RADIAN. ) );
#8 = AXIS2_PLACEMENT_3D ( 'NONE', #60, #145, #141 ) ;
#9 = ORIENTED_EDGE ( 'NONE', *, *, #109, .T. ) ;
#10 = EDGE_LOOP ( 'NONE', ( #174, #250, #176, #138 ) ) ;
#11 = ORIENTED_EDGE ( 'NONE', *, *, #6, .T. ) ;
#12 = ORIENTED_EDGE ( 'NONE', *, *, #218, .F. ) ;
#13 = VERTEX_POINT ( 'NONE', #72 ) ;
#14 = AXIS2_PLACEMENT_3D ( 'NONE', #100, #180, #102 ) ;
#15 = CARTESIAN_POINT ( 'NONE',  ( 0.000000000000000000, 0.000000000000000000, -9.525000000000000355 ) ) ;
#16 = CYLINDRICAL_SURFACE ( 'NONE', #50, 9.525000000000000355 ) ;
#17 = FILL_AREA_STYLE ('',( #258 ) ) ;
#18 = PRODUCT_DEFINITION_FORMATION_WITH_SPECIFIED_SOURCE ( 'ANY', '', #144, .NOT_KNOWN. ) ;
#19 = DIRECTION ( 'NONE',  ( -0.000000000000000000, -1.000000000000000000, -0.000000000000000000 ) ) ;
#20 = CARTESIAN_POINT ( 'NONE',  ( 0.1249999999999994310, 0.000000000000000000, -1.502789035811391758E-17 ) ) ;
#21 = CIRCLE ( 'NONE', #161, 5.918200000000001459 ) ;
#22 = PLANE ( 'NONE',  #93 ) ;
#23 = CARTESIAN_POINT ( 'NONE',  ( 0.1249999999999994310, 0.5080000000000000071, -1.502789035811391758E-17 ) ) ;
#24 = ORIENTED_EDGE ( 'NONE', *, *, #43, .T. ) ;
#25 = DIRECTION ( 'NONE',  ( 1.000000000000000000, 0.000000000000000000, -1.202231228649118830E-16 ) ) ;
#26 = DIRECTION ( 'NONE',  ( -0.000000000000000000, -1.000000000000000000, -0.000000000000000000 ) ) ;
#27 = ORIENTED_EDGE ( 'NONE', *, *, #209, .T. ) ;
#28 = ORIENTED_EDGE ( 'NONE', *, *, #117, .F. ) ;
#29 = CIRCLE ( 'NONE', #71, 5.918200000000001459 ) ;
#30 = EDGE_LOOP ( 'NONE', ( #229, #133, #46, #177 ) ) ;
#31 = EDGE_CURVE ( 'NONE', #210, #235, #255, .T. ) ;
#32 = ORIENTED_EDGE ( 'NONE', *, *, #237, .F. ) ;
#33 = EDGE_LOOP ( 'NONE', ( #53, #28, #32, #193 ) ) ;
#34 = CARTESIAN_POINT ( 'NONE',  ( 0.1250000000000001388, 0.5080000000000000071, 5.916879772312430674 ) ) ;
#35 = CARTESIAN_POINT ( 'NONE',  ( -0.1249999999999994310, 0.5080000000000000071, 9.524179754708539392 ) ) ;
#36 = ADVANCED_BREP_SHAPE_REPRESENTATION ( 'SK5001', ( #153, #175 ), #44 ) ;
#37 = CARTESIAN_POINT ( 'NONE',  ( 0.000000000000000000, 0.5080000000000000071, 0.000000000000000000 ) ) ;
#38 = CLOSED_SHELL ( 'NONE', ( #98, #91, #132, #160, #251, #227, #64, #2 ) ) ;
#39 = CARTESIAN_POINT ( 'NONE',  ( 0.1250000000000005829, 0.000000000000000000, 9.524179754708539392 ) ) ;
#40 = EDGE_CURVE ( 'NONE', #210, #13, #21, .T. ) ;
#41 = CARTESIAN_POINT ( 'NONE',  ( 0.1249999999999994310, 0.5080000000000000071, -1.502789035811391758E-17 ) ) ;
#42 = CARTESIAN_POINT ( 'NONE',  ( 0.1250000000000001388, 0.5080000000000000071, 5.916879772312430674 ) ) ;
#43 = EDGE_CURVE ( 'NONE', #191, #235, #130, .T. ) ;
#44 =( GEOMETRIC_REPRESENTATION_CONTEXT ( 3 ) GLOBAL_UNCERTAINTY_ASSIGNED_CONTEXT ( ( #215 ) ) GLOBAL_UNIT_ASSIGNED_CONTEXT ( ( #173, #7, #85 ) ) REPRESENTATION_CONTEXT ( 'NONE', 'WORKASPACE' ) );
#45 = DIRECTION ( 'NONE',  ( 0.000000000000000000, 0.000000000000000000, 1.000000000000000000 ) ) ;
#46 = ORIENTED_EDGE ( 'NONE', *, *, #43, .F. ) ;
#47 = APPLICATION_CONTEXT ( 'automotive_design' ) ;
#48 = DIRECTION ( 'NONE',  ( 1.202231228649118830E-16, 0.000000000000000000, 1.000000000000000000 ) ) ;
#49 = PRODUCT_CONTEXT ( 'NONE', #47, 'mechanical' ) ;
#50 = AXIS2_PLACEMENT_3D ( 'NONE', #199, #19, #84 ) ;
#51 = ORIENTED_EDGE ( 'NONE', *, *, #137, .T. ) ;
#52 = CARTESIAN_POINT ( 'NONE',  ( 0.000000000000000000, 0.5080000000000000071, 0.000000000000000000 ) ) ;
#53 = ORIENTED_EDGE ( 'NONE', *, *, #121, .T. ) ;
#54 = APPLICATION_PROTOCOL_DEFINITION ( 'draft international standard', 'automotive_design', 1998, #238 ) ;
#55 = ORIENTED_EDGE ( 'NONE', *, *, #192, .F. ) ;
#56 = VERTEX_POINT ( 'NONE', #35 ) ;
#57 = LINE ( 'NONE', #224, #112 ) ;
#58 =( GEOMETRIC_REPRESENTATION_CONTEXT ( 3 ) GLOBAL_UNCERTAINTY_ASSIGNED_CONTEXT ( ( #139 ) ) GLOBAL_UNIT_ASSIGNED_CONTEXT ( ( #166, #244, #220 ) ) REPRESENTATION_CONTEXT ( 'NONE', 'WORKASPACE' ) );
#59 = DIRECTION ( 'NONE',  ( 1.202231228649118830E-16, 0.000000000000000000, 1.000000000000000000 ) ) ;
#60 = CARTESIAN_POINT ( 'NONE',  ( 0.000000000000000000, 0.5080000000000000071, 0.000000000000000000 ) ) ;
#61 = PRESENTATION_LAYER_ASSIGNMENT (  '', '', ( #179 ) ) ;
#62 = DIRECTION ( 'NONE',  ( 0.000000000000000000, 0.000000000000000000, 1.000000000000000000 ) ) ;
#63 = ORIENTED_EDGE ( 'NONE', *, *, #137, .F. ) ;
#64 = ADVANCED_FACE ( 'NONE', ( #103 ), #183, .T. ) ;
#65 = DIRECTION ( 'NONE',  ( 0.000000000000000000, 1.000000000000000000, -0.000000000000000000 ) ) ;
#66 = VECTOR ( 'NONE', #108, 1000.000000000000000 ) ;
#67 = DIRECTION ( 'NONE',  ( 0.000000000000000000, 1.000000000000000000, -0.000000000000000000 ) ) ;
#68 = CARTESIAN_POINT ( 'NONE',  ( 0.000000000000000000, 0.000000000000000000, 0.000000000000000000 ) ) ;
#69 = ORIENTED_EDGE ( 'NONE', *, *, #6, .F. ) ;
#70 = VERTEX_POINT ( 'NONE', #15 ) ;
#71 = AXIS2_PLACEMENT_3D ( 'NONE', #68, #65, #225 ) ;
#72 = CARTESIAN_POINT ( 'NONE',  ( -0.1249999999999998612, 0.5080000000000000071, 5.916879772312430674 ) ) ;
#73 = VERTEX_POINT ( 'NONE', #34 ) ;
#74 = PRODUCT_DEFINITION_CONTEXT ( 'detailed design', #238, 'design' ) ;
#75 = CARTESIAN_POINT ( 'NONE',  ( 0.000000000000000000, 0.000000000000000000, 0.000000000000000000 ) ) ;
#76 = DIRECTION ( 'NONE',  ( 1.000000000000000000, 0.000000000000000000, 0.000000000000000000 ) ) ;
#77 = CARTESIAN_POINT ( 'NONE',  ( 0.000000000000000000, 0.5080000000000000071, -5.918200000000001459 ) ) ;
#78 = COLOUR_RGB ( '',0.7921568627450980005, 0.8196078431372548767, 0.9333333333333333481 ) ;
#79 = SURFACE_SIDE_STYLE ('',( #83 ) ) ;
#80 = CARTESIAN_POINT ( 'NONE',  ( 0.000000000000000000, 0.5080000000000000071, 0.000000000000000000 ) ) ;
#81 = CIRCLE ( 'NONE', #142, 9.525000000000000355 ) ;
#82 = DIRECTION ( 'NONE',  ( -0.000000000000000000, -1.000000000000000000, -0.000000000000000000 ) ) ;
#83 = SURFACE_STYLE_FILL_AREA ( #17 ) ;
#84 = DIRECTION ( 'NONE',  ( 0.000000000000000000, 0.000000000000000000, -1.000000000000000000 ) ) ;
#85 =( NAMED_UNIT ( * ) SI_UNIT ( $, .STERADIAN. ) SOLID_ANGLE_UNIT ( ) );
#86 = LINE ( 'NONE', #42, #66 ) ;
#87 = DIRECTION ( 'NONE',  ( 0.000000000000000000, 0.000000000000000000, 1.000000000000000000 ) ) ;
#88 = LINE ( 'NONE', #127, #211 ) ;
#89 = EDGE_LOOP ( 'NONE', ( #24, #157, #94, #114, #55, #234 ) ) ;
#90 = CARTESIAN_POINT ( 'NONE',  ( -0.1250000000000005829, 0.5080000000000000071, 1.502789035811405316E-17 ) ) ;
#91 = ADVANCED_FACE ( 'NONE', ( #120 ), #118, .F. ) ;
#92 = ORIENTED_EDGE ( 'NONE', *, *, #192, .T. ) ;
#93 = AXIS2_PLACEMENT_3D ( 'NONE', #41, #25, #230 ) ;
#94 = ORIENTED_EDGE ( 'NONE', *, *, #147, .T. ) ;
#95 = ORIENTED_EDGE ( 'NONE', *, *, #40, .F. ) ;
#96 = VERTEX_POINT ( 'NONE', #167 ) ;
#97 = EDGE_LOOP ( 'NONE', ( #134, #63, #253, #92 ) ) ;
#98 = ADVANCED_FACE ( 'NONE', ( #259 ), #16, .T. ) ;
#99 = FACE_OUTER_BOUND ( 'NONE', #33, .T. ) ;
#100 = CARTESIAN_POINT ( 'NONE',  ( 0.000000000000000000, 0.000000000000000000, 0.000000000000000000 ) ) ;
#101 = CIRCLE ( 'NONE', #123, 9.525000000000000355 ) ;
#102 = DIRECTION ( 'NONE',  ( 0.000000000000000000, 0.000000000000000000, 1.000000000000000000 ) ) ;
#103 = FACE_OUTER_BOUND ( 'NONE', #186, .T. ) ;
#104 = LINE ( 'NONE', #257, #245 ) ;
#105 = CARTESIAN_POINT ( 'NONE',  ( 0.000000000000000000, 0.000000000000000000, 0.000000000000000000 ) ) ;
#106 = DIRECTION ( 'NONE',  ( 0.000000000000000000, 1.000000000000000000, -0.000000000000000000 ) ) ;
#107 = DIRECTION ( 'NONE',  ( -0.000000000000000000, -1.000000000000000000, -0.000000000000000000 ) ) ;
#108 = DIRECTION ( 'NONE',  ( -0.000000000000000000, -1.000000000000000000, -0.000000000000000000 ) ) ;
#109 = EDGE_CURVE ( 'NONE', #56, #172, #57, .T. ) ;
#110 = DIRECTION ( 'NONE',  ( 0.000000000000000000, 1.000000000000000000, -0.000000000000000000 ) ) ;
#111 = VERTEX_POINT ( 'NONE', #39 ) ;
#112 = VECTOR ( 'NONE', #82, 1000.000000000000000 ) ;
#113 = DIRECTION ( 'NONE',  ( 0.000000000000000000, 0.000000000000000000, 1.000000000000000000 ) ) ;
#114 = ORIENTED_EDGE ( 'NONE', *, *, #170, .F. ) ;
#115 = CARTESIAN_POINT ( 'NONE',  ( -0.1250000000000005829, 0.5080000000000000071, 1.502789035811405316E-17 ) ) ;
#116 = EDGE_LOOP ( 'NONE', ( #12, #27, #159, #206 ) ) ;
#117 = EDGE_CURVE ( 'NONE', #155, #111, #165, .T. ) ;
#118 = CYLINDRICAL_SURFACE ( 'NONE', #212, 5.918200000000001459 ) ;
#119 = AXIS2_PLACEMENT_3D ( 'NONE', #208, #107, #129 ) ;
#120 = FACE_OUTER_BOUND ( 'NONE', #30, .T. ) ;
#121 = EDGE_CURVE ( 'NONE', #191, #111, #203, .T. ) ;
#122 = DIRECTION ( 'NONE',  ( 0.000000000000000000, 0.000000000000000000, 1.000000000000000000 ) ) ;
#123 = AXIS2_PLACEMENT_3D ( 'NONE', #4, #248, #87 ) ;
#124 = CIRCLE ( 'NONE', #8, 9.525000000000000355 ) ;
#125 = DIRECTION ( 'NONE',  ( 0.000000000000000000, 0.000000000000000000, -1.000000000000000000 ) ) ;
#126 = CARTESIAN_POINT ( 'NONE',  ( 0.1250000000000001388, 0.000000000000000000, 5.916879772312430674 ) ) ;
#127 = CARTESIAN_POINT ( 'NONE',  ( 0.000000000000000000, 0.5080000000000000071, -9.525000000000000355 ) ) ;
#128 = CYLINDRICAL_SURFACE ( 'NONE', #119, 9.525000000000000355 ) ;
#129 = DIRECTION ( 'NONE',  ( 0.000000000000000000, 0.000000000000000000, -1.000000000000000000 ) ) ;
#130 = CIRCLE ( 'NONE', #14, 5.918200000000001459 ) ;
#131 = FACE_OUTER_BOUND ( 'NONE', #89, .T. ) ;
#132 = ADVANCED_FACE ( 'NONE', ( #223 ), #140, .F. ) ;
#133 = ORIENTED_EDGE ( 'NONE', *, *, #31, .T. ) ;
#134 = ORIENTED_EDGE ( 'NONE', *, *, #209, .F. ) ;
#135 = VECTOR ( 'NONE', #236, 1000.000000000000000 ) ;
#136 = DIRECTION ( 'NONE',  ( 0.000000000000000000, 0.000000000000000000, 1.000000000000000000 ) ) ;
#137 = EDGE_CURVE ( 'NONE', #155, #189, #124, .T. ) ;
#138 = ORIENTED_EDGE ( 'NONE', *, *, #232, .F. ) ;
#139 = UNCERTAINTY_MEASURE_WITH_UNIT (LENGTH_MEASURE( 1.000000000000000082E-05 ), #166, 'distance_accuracy_value', 'NONE');
#140 = CYLINDRICAL_SURFACE ( 'NONE', #151, 5.918200000000001459 ) ;
#141 = DIRECTION ( 'NONE',  ( 0.000000000000000000, 0.000000000000000000, 1.000000000000000000 ) ) ;
#142 = AXIS2_PLACEMENT_3D ( 'NONE', #188, #190, #184 ) ;
#143 = CARTESIAN_POINT ( 'NONE',  ( 0.000000000000000000, 0.5080000000000000071, 0.000000000000000000 ) ) ;
#144 = PRODUCT ( 'SK5001', 'SK5001', '', ( #49 ) ) ;
#145 = DIRECTION ( 'NONE',  ( 0.000000000000000000, 1.000000000000000000, -0.000000000000000000 ) ) ;
#146 = CARTESIAN_POINT ( 'NONE',  ( 0.000000000000000000, 0.5080000000000000071, -5.918200000000001459 ) ) ;
#147 = EDGE_CURVE ( 'NONE', #96, #172, #104, .T. ) ;
#148 = CARTESIAN_POINT ( 'NONE',  ( 0.000000000000000000, 0.000000000000000000, 0.000000000000000000 ) ) ;
#149 = FACE_OUTER_BOUND ( 'NONE', #97, .T. ) ;
#150 = AXIS2_PLACEMENT_3D ( 'NONE', #90, #207, #3 ) ;
#151 = AXIS2_PLACEMENT_3D ( 'NONE', #143, #221, #216 ) ;
#152 = LINE ( 'NONE', #5, #181 ) ;
#153 = MANIFOLD_SOLID_BREP ( 'Boss-Extrude1', #38 ) ;
#154 = CARTESIAN_POINT ( 'NONE',  ( 0.000000000000000000, 0.5080000000000000071, -9.525000000000000355 ) ) ;
#155 = VERTEX_POINT ( 'NONE', #202 ) ;
#156 = AXIS2_PLACEMENT_3D ( 'NONE', #228, #106, #45 ) ;
#157 = ORIENTED_EDGE ( 'NONE', *, *, #232, .T. ) ;
#158 = ORIENTED_EDGE ( 'NONE', *, *, #218, .T. ) ;
#159 = ORIENTED_EDGE ( 'NONE', *, *, #170, .T. ) ;
#160 = ADVANCED_FACE ( 'NONE', ( #99 ), #22, .F. ) ;
#161 = AXIS2_PLACEMENT_3D ( 'NONE', #52, #162, #122 ) ;
#162 = DIRECTION ( 'NONE',  ( 0.000000000000000000, 1.000000000000000000, -0.000000000000000000 ) ) ;
#163 = SURFACE_STYLE_USAGE ( .BOTH. , #79 ) ;
#164 = EDGE_CURVE ( 'NONE', #73, #191, #86, .T. ) ;
#165 = LINE ( 'NONE', #247, #196 ) ;
#166 =( LENGTH_UNIT ( ) NAMED_UNIT ( * ) SI_UNIT ( .MILLI., .METRE. ) );
#167 = CARTESIAN_POINT ( 'NONE',  ( -0.1249999999999998612, 0.000000000000000000, 5.916879772312430674 ) ) ;
#168 = PRODUCT_DEFINITION ( 'UNKNOWN', '', #18, #74 ) ;
#169 = PLANE ( 'NONE',  #150 ) ;
#170 = EDGE_CURVE ( 'NONE', #70, #172, #217, .T. ) ;
#171 = DIRECTION ( 'NONE',  ( -0.000000000000000000, -1.000000000000000000, -0.000000000000000000 ) ) ;
#172 = VERTEX_POINT ( 'NONE', #204 ) ;
#173 =( LENGTH_UNIT ( ) NAMED_UNIT ( * ) SI_UNIT ( .MILLI., .METRE. ) );
#174 = ORIENTED_EDGE ( 'NONE', *, *, #31, .F. ) ;
#175 = AXIS2_PLACEMENT_3D ( 'NONE', #148, #113, #76 ) ;
#176 = ORIENTED_EDGE ( 'NONE', *, *, #260, .T. ) ;
#177 = ORIENTED_EDGE ( 'NONE', *, *, #164, .F. ) ;
#178 = ORIENTED_EDGE ( 'NONE', *, *, #260, .F. ) ;
#179 = STYLED_ITEM ( 'NONE', ( #182 ), #153 ) ;
#180 = DIRECTION ( 'NONE',  ( 0.000000000000000000, 1.000000000000000000, -0.000000000000000000 ) ) ;
#181 = VECTOR ( 'NONE', #26, 1000.000000000000000 ) ;
#182 = PRESENTATION_STYLE_ASSIGNMENT (( #163 ) ) ;
#183 = PLANE ( 'NONE',  #256 ) ;
#184 = DIRECTION ( 'NONE',  ( 0.000000000000000000, 0.000000000000000000, 1.000000000000000000 ) ) ;
#185 = APPLICATION_PROTOCOL_DEFINITION ( 'draft international standard', 'automotive_design', 1998, #47 ) ;
#186 = EDGE_LOOP ( 'NONE', ( #240, #195, #51, #158, #69, #95 ) ) ;
#187 = EDGE_CURVE ( 'NONE', #73, #210, #261, .T. ) ;
#188 = CARTESIAN_POINT ( 'NONE',  ( 0.000000000000000000, 0.000000000000000000, 0.000000000000000000 ) ) ;
#189 = VERTEX_POINT ( 'NONE', #154 ) ;
#190 = DIRECTION ( 'NONE',  ( 0.000000000000000000, 1.000000000000000000, -0.000000000000000000 ) ) ;
#191 = VERTEX_POINT ( 'NONE', #126 ) ;
#192 = EDGE_CURVE ( 'NONE', #111, #70, #81, .T. ) ;
#193 = ORIENTED_EDGE ( 'NONE', *, *, #164, .T. ) ;
#194 = DIRECTION ( 'NONE',  ( 1.202231228649118830E-16, 0.000000000000000000, 1.000000000000000000 ) ) ;
#195 = ORIENTED_EDGE ( 'NONE', *, *, #237, .T. ) ;
#196 = VECTOR ( 'NONE', #246, 1000.000000000000000 ) ;
#197 = MECHANICAL_DESIGN_GEOMETRIC_PRESENTATION_REPRESENTATION (  '', ( #179 ), #58 ) ;
#198 = DIRECTION ( 'NONE',  ( -0.000000000000000000, -1.000000000000000000, -0.000000000000000000 ) ) ;
#199 = CARTESIAN_POINT ( 'NONE',  ( 0.000000000000000000, 0.5080000000000000071, 0.000000000000000000 ) ) ;
#200 = DIRECTION ( 'NONE',  ( 1.202231228649118830E-16, 0.000000000000000000, 1.000000000000000000 ) ) ;
#201 = VECTOR ( 'NONE', #48, 1000.000000000000000 ) ;
#202 = CARTESIAN_POINT ( 'NONE',  ( 0.1250000000000005829, 0.5080000000000000071, 9.524179754708539392 ) ) ;
#203 = LINE ( 'NONE', #20, #241 ) ;
#204 = CARTESIAN_POINT ( 'NONE',  ( -0.1249999999999994310, 0.000000000000000000, 9.524179754708539392 ) ) ;
#205 = AXIS2_PLACEMENT_3D ( 'NONE', #105, #67, #62 ) ;
#206 = ORIENTED_EDGE ( 'NONE', *, *, #109, .F. ) ;
#207 = DIRECTION ( 'NONE',  ( 1.000000000000000000, 0.000000000000000000, -1.202231228649118830E-16 ) ) ;
#208 = CARTESIAN_POINT ( 'NONE',  ( 0.000000000000000000, 0.5080000000000000071, 0.000000000000000000 ) ) ;
#209 = EDGE_CURVE ( 'NONE', #189, #70, #88, .T. ) ;
#210 = VERTEX_POINT ( 'NONE', #146 ) ;
#211 = VECTOR ( 'NONE', #171, 1000.000000000000000 ) ;
#212 = AXIS2_PLACEMENT_3D ( 'NONE', #80, #198, #125 ) ;
#213 = SHAPE_DEFINITION_REPRESENTATION ( #226, #36 ) ;
#214 = LINE ( 'NONE', #115, #231 ) ;
#215 = UNCERTAINTY_MEASURE_WITH_UNIT (LENGTH_MEASURE( 1.000000000000000082E-05 ), #173, 'distance_accuracy_value', 'NONE');
#216 = DIRECTION ( 'NONE',  ( 0.000000000000000000, 0.000000000000000000, -1.000000000000000000 ) ) ;
#217 = CIRCLE ( 'NONE', #205, 9.525000000000000355 ) ;
#218 = EDGE_CURVE ( 'NONE', #189, #56, #101, .T. ) ;
#219 = AXIS2_PLACEMENT_3D ( 'NONE', #75, #110, #136 ) ;
#220 =( NAMED_UNIT ( * ) SI_UNIT ( $, .STERADIAN. ) SOLID_ANGLE_UNIT ( ) );
#221 = DIRECTION ( 'NONE',  ( -0.000000000000000000, -1.000000000000000000, -0.000000000000000000 ) ) ;
#222 = PRODUCT_RELATED_PRODUCT_CATEGORY ( 'part', '', ( #144 ) ) ;
#223 = FACE_OUTER_BOUND ( 'NONE', #10, .T. ) ;
#224 = CARTESIAN_POINT ( 'NONE',  ( -0.1249999999999994310, 0.5080000000000000071, 9.524179754708539392 ) ) ;
#225 = DIRECTION ( 'NONE',  ( 0.000000000000000000, 0.000000000000000000, 1.000000000000000000 ) ) ;
#226 = PRODUCT_DEFINITION_SHAPE ( 'NONE', 'NONE',  #168 ) ;
#227 = ADVANCED_FACE ( 'NONE', ( #252 ), #169, .T. ) ;
#228 = CARTESIAN_POINT ( 'NONE',  ( 0.000000000000000000, 0.5080000000000000071, 0.000000000000000000 ) ) ;
#229 = ORIENTED_EDGE ( 'NONE', *, *, #187, .T. ) ;
#230 = DIRECTION ( 'NONE',  ( -1.202231228649118830E-16, 0.000000000000000000, -1.000000000000000000 ) ) ;
#231 = VECTOR ( 'NONE', #194, 1000.000000000000000 ) ;
#232 = EDGE_CURVE ( 'NONE', #235, #96, #29, .T. ) ;
#233 = CARTESIAN_POINT ( 'NONE',  ( 0.000000000000000000, 0.000000000000000000, -5.918200000000001459 ) ) ;
#234 = ORIENTED_EDGE ( 'NONE', *, *, #121, .F. ) ;
#235 = VERTEX_POINT ( 'NONE', #233 ) ;
#236 = DIRECTION ( 'NONE',  ( -0.000000000000000000, -1.000000000000000000, -0.000000000000000000 ) ) ;
#237 = EDGE_CURVE ( 'NONE', #73, #155, #249, .T. ) ;
#238 = APPLICATION_CONTEXT ( 'automotive_design' ) ;
#239 = PLANE ( 'NONE',  #219 ) ;
#240 = ORIENTED_EDGE ( 'NONE', *, *, #187, .F. ) ;
#241 = VECTOR ( 'NONE', #59, 1000.000000000000000 ) ;
#242 = ORIENTED_EDGE ( 'NONE', *, *, #147, .F. ) ;
#243 = DIRECTION ( 'NONE',  ( 0.000000000000000000, 0.000000000000000000, 1.000000000000000000 ) ) ;
#244 =( NAMED_UNIT ( * ) PLANE_ANGLE_UNIT ( ) SI_UNIT ( $, .RADIAN. ) );
#245 = VECTOR ( 'NONE', #200, 1000.000000000000000 ) ;
#246 = DIRECTION ( 'NONE',  ( -0.000000000000000000, -1.000000000000000000, -0.000000000000000000 ) ) ;
#247 = CARTESIAN_POINT ( 'NONE',  ( 0.1250000000000005829, 0.5080000000000000071, 9.524179754708539392 ) ) ;
#248 = DIRECTION ( 'NONE',  ( 0.000000000000000000, 1.000000000000000000, -0.000000000000000000 ) ) ;
#249 = LINE ( 'NONE', #23, #201 ) ;
#250 = ORIENTED_EDGE ( 'NONE', *, *, #40, .T. ) ;
#251 = ADVANCED_FACE ( 'NONE', ( #149 ), #128, .T. ) ;
#252 = FACE_OUTER_BOUND ( 'NONE', #254, .T. ) ;
#253 = ORIENTED_EDGE ( 'NONE', *, *, #117, .T. ) ;
#254 = EDGE_LOOP ( 'NONE', ( #242, #178, #11, #9 ) ) ;
#255 = LINE ( 'NONE', #77, #135 ) ;
#256 = AXIS2_PLACEMENT_3D ( 'NONE', #37, #1, #243 ) ;
#257 = CARTESIAN_POINT ( 'NONE',  ( -0.1250000000000005829, 0.000000000000000000, 1.502789035811405316E-17 ) ) ;
#258 = FILL_AREA_STYLE_COLOUR ( '', #78 ) ;
#259 = FACE_OUTER_BOUND ( 'NONE', #116, .T. ) ;
#260 = EDGE_CURVE ( 'NONE', #13, #96, #152, .T. ) ;
#261 = CIRCLE ( 'NONE', #156, 5.918200000000001459 ) ;
ENDSEC;
END-ISO-10303-21;
