ISO-10303-21;
HEADER;
FILE_DESCRIPTION (( 'STEP AP203' ),
    '1' );
FILE_NAME ('HT0001.STEP',
    '2014-08-05T16:33:49',
    ( 'JeffCAD' ),
    ( 'Microsoft' ),
    'SwSTEP 2.0',
    'SolidWorks 2012',
    '' );
FILE_SCHEMA (( 'CONFIG_CONTROL_DESIGN' ));
ENDSEC;

DATA;
#1 = MANIFOLD_SOLID_BREP ( 'Mirror1', #217 ) ;
#2 = APPROVAL_ROLE ( '' ) ;
#3 = DIRECTION ( 'NONE',  ( 0.0000000000000000000, 0.0000000000000000000, -1.000000000000000000 ) ) ;
#4 = APPROVAL_STATUS ( 'not_yet_approved' ) ;
#5 = DATE_TIME_ROLE ( 'creation_date' ) ;
#6 = SECURITY_CLASSIFICATION_LEVEL ( 'unclassified' ) ;
#7 = PERSON_AND_ORGANIZATION_ROLE ( 'creator' ) ;
#8 = APPROVAL_ROLE ( '' ) ;
#9 = APPROVAL_STATUS ( 'not_yet_approved' ) ;
#10 = APPLICATION_PROTOCOL_DEFINITION ( 'international standard', 'config_control_design', 1994, #12 ) ;
#11 = DIRECTION ( 'NONE',  ( 1.000000000000000000, -0.0000000000000000000, -0.0000000000000000000 ) ) ;
#12 = APPLICATION_CONTEXT ( 'configuration controlled 3d designs of mechanical parts and assemblies' ) ;
#13 = PERSON_AND_ORGANIZATION_ROLE ( 'design_owner' ) ;
#14 = DATE_TIME_ROLE ( 'classification_date' ) ;
#15 = MECHANICAL_CONTEXT ( 'NONE', #19, 'mechanical' ) ;
#16 = DIRECTION ( 'NONE',  ( 1.000000000000000000, 0.0000000000000000000, 0.0000000000000000000 ) ) ;
#17 = DIRECTION ( 'NONE',  ( 0.0000000000000000000, 0.0000000000000000000, 1.000000000000000000 ) ) ;
#18 = DIRECTION ( 'NONE',  ( -0.0000000000000000000, 0.0000000000000000000, -1.000000000000000000 ) ) ;
#19 = APPLICATION_CONTEXT ( 'configuration controlled 3d designs of mechanical parts and assemblies' ) ;
#20 = DIRECTION ( 'NONE',  ( 1.000000000000000000, 0.0000000000000000000, -0.0000000000000000000 ) ) ;
#21 = APPLICATION_PROTOCOL_DEFINITION ( 'international standard', 'config_control_design', 1994, #19 ) ;
#22 =( NAMED_UNIT ( * ) SI_UNIT ( $, .STERADIAN. ) SOLID_ANGLE_UNIT ( ) );
#23 = DIRECTION ( 'NONE',  ( 1.000000000000000000, -0.0000000000000000000, -0.0000000000000000000 ) ) ;
#24 =( NAMED_UNIT ( * ) PLANE_ANGLE_UNIT ( ) SI_UNIT ( $, .RADIAN. ) );
#25 = PLANE ( 'NONE',  #138 ) ;
#26 =( LENGTH_UNIT ( ) NAMED_UNIT ( * ) SI_UNIT ( .MILLI., .METRE. ) );
#27 = CARTESIAN_POINT ( 'NONE',  ( 0.0000000000000000000, 0.0000000000000000000, 0.0000000000000000000 ) ) ;
#28 = CARTESIAN_POINT ( 'NONE',  ( 0.0000000000000000000, 0.0000000000000000000, -24.99359999999999700 ) ) ;
#29 = CARTESIAN_POINT ( 'NONE',  ( -12.65918260245690700, 0.0000000000000000000, 0.0000000000000000000 ) ) ;
#30 = CARTESIAN_POINT ( 'NONE',  ( -21.12396844456271700, 0.0000000000000000000, -22.50439999999999300 ) ) ;
#31 = PERSON_AND_ORGANIZATION_ROLE ( 'creator' ) ;
#32 = CARTESIAN_POINT ( 'NONE',  ( 0.0000000000000000000, 0.0000000000000000000, -21.75509999999999900 ) ) ;
#33 = CARTESIAN_POINT ( 'NONE',  ( -90.00000000000000000, 0.0000000000000000000, -21.75509999999999900 ) ) ;
#34 = DIRECTION ( 'NONE',  ( 0.0000000000000000000, 0.0000000000000000000, -1.000000000000000000 ) ) ;
#35 = DIRECTION ( 'NONE',  ( 0.0000000000000000000, 0.0000000000000000000, -1.000000000000000000 ) ) ;
#36 = CARTESIAN_POINT ( 'NONE',  ( 0.0000000000000000000, 24.99359999999999700, 0.0000000000000000000 ) ) ;
#37 = CARTESIAN_POINT ( 'NONE',  ( -5.003800000000006200, 0.0000000000000000000, -24.99359999999999400 ) ) ;
#38 = CARTESIAN_POINT ( 'NONE',  ( -90.00000000000000000, 0.0000000000000000000, -24.99359999999999700 ) ) ;
#39 = CARTESIAN_POINT ( 'NONE',  ( -21.12396844456271300, 0.0000000000000000000, 0.0000000000000000000 ) ) ;
#40 = CARTESIAN_POINT ( 'NONE',  ( -75.00000000000000000, 0.0000000000000000000, -21.75509999999999500 ) ) ;
#41 = CARTESIAN_POINT ( 'NONE',  ( -84.99619999999998800, 0.0000000000000000000, -24.99359999999999400 ) ) ;
#42 = CARTESIAN_POINT ( 'NONE',  ( -12.65918260245691200, 0.0000000000000000000, -23.81250000000000000 ) ) ;
#43 = DIRECTION ( 'NONE',  ( 0.0000000000000000000, 0.0000000000000000000, -1.000000000000000000 ) ) ;
#44 = DIRECTION ( 'NONE',  ( 1.000000000000000000, -0.0000000000000000000, -0.0000000000000000000 ) ) ;
#45 = CARTESIAN_POINT ( 'NONE',  ( 0.0000000000000000000, 0.0000000000000000000, 0.0000000000000000000 ) ) ;
#46 = DIRECTION ( 'NONE',  ( 1.000000000000000000, -0.0000000000000000000, -0.0000000000000000000 ) ) ;
#47 = DIRECTION ( 'NONE',  ( 0.0000000000000000000, 0.0000000000000000000, -1.000000000000000000 ) ) ;
#48 = DIRECTION ( 'NONE',  ( 1.000000000000000000, -0.0000000000000000000, -0.0000000000000000000 ) ) ;
#49 = CARTESIAN_POINT ( 'NONE',  ( -21.12396844456271700, 0.0000000000000000000, 0.0000000000000000000 ) ) ;
#50 = CARTESIAN_POINT ( 'NONE',  ( -77.34081739754309100, 0.0000000000000000000, -23.81250000000000000 ) ) ;
#51 = DIRECTION ( 'NONE',  ( 0.0000000000000000000, 0.0000000000000000000, -1.000000000000000000 ) ) ;
#52 = APPROVAL_STATUS ( 'not_yet_approved' ) ;
#53 = CARTESIAN_POINT ( 'NONE',  ( -90.00000000000000000, 0.0000000000000000000, 0.0000000000000000000 ) ) ;
#54 = DIRECTION ( 'NONE',  ( 1.000000000000000000, -0.0000000000000000000, -0.0000000000000000000 ) ) ;
#55 = CARTESIAN_POINT ( 'NONE',  ( 0.0000000000000000000, 0.0000000000000000000, 0.0000000000000000000 ) ) ;
#56 = DIRECTION ( 'NONE',  ( 0.0000000000000000000, 0.0000000000000000000, -1.000000000000000000 ) ) ;
#57 = DIRECTION ( 'NONE',  ( -1.000000000000000000, 0.0000000000000000000, 0.0000000000000000000 ) ) ;
#58 = DIRECTION ( 'NONE',  ( 0.0000000000000000000, 0.0000000000000000000, -1.000000000000000000 ) ) ;
#59 = DIRECTION ( 'NONE',  ( 0.0000000000000000000, 0.0000000000000000000, -1.000000000000000000 ) ) ;
#60 = PLANE ( 'NONE',  #153 ) ;
#61 = DIRECTION ( 'NONE',  ( 1.000000000000000000, -0.0000000000000000000, -0.0000000000000000000 ) ) ;
#62 = DIRECTION ( 'NONE',  ( -1.000000000000000000, 0.0000000000000000000, 0.0000000000000000000 ) ) ;
#63 = CARTESIAN_POINT ( 'NONE',  ( -90.00000000000000000, 0.0000000000000000000, 0.0000000000000000000 ) ) ;
#64 = CARTESIAN_POINT ( 'NONE',  ( -14.99999999999999600, 0.0000000000000000000, -21.75509999999999500 ) ) ;
#65 = DIRECTION ( 'NONE',  ( 0.0000000000000000000, 0.0000000000000000000, -1.000000000000000000 ) ) ;
#66 = DIRECTION ( 'NONE',  ( 0.0000000000000000000, 0.0000000000000000000, -1.000000000000000000 ) ) ;
#67 = CARTESIAN_POINT ( 'NONE',  ( -90.00000000000000000, 24.99359999999999700, 0.0000000000000000000 ) ) ;
#68 = DIRECTION ( 'NONE',  ( 1.000000000000000000, -0.0000000000000000000, -0.0000000000000000000 ) ) ;
#69 = DIRECTION ( 'NONE',  ( -1.000000000000000000, 0.0000000000000000000, 0.0000000000000000000 ) ) ;
#70 = CARTESIAN_POINT ( 'NONE',  ( -5.003800000000006200, 0.0000000000000000000, 0.0000000000000000000 ) ) ;
#71 = CARTESIAN_POINT ( 'NONE',  ( -68.87603155543728000, 0.0000000000000000000, -22.50439999999999300 ) ) ;
#72 = DIRECTION ( 'NONE',  ( 0.0000000000000000000, 0.0000000000000000000, -1.000000000000000000 ) ) ;
#73 = CARTESIAN_POINT ( 'NONE',  ( -90.00000000000000000, 0.0000000000000000000, 0.0000000000000000000 ) ) ;
#74 = DIRECTION ( 'NONE',  ( 1.000000000000000000, -0.0000000000000000000, -0.0000000000000000000 ) ) ;
#75 = DIRECTION ( 'NONE',  ( 0.0000000000000000000, 0.0000000000000000000, -1.000000000000000000 ) ) ;
#76 = DIRECTION ( 'NONE',  ( 0.0000000000000000000, 0.0000000000000000000, -1.000000000000000000 ) ) ;
#77 = CARTESIAN_POINT ( 'NONE',  ( -77.34081739754309100, 0.0000000000000000000, 0.0000000000000000000 ) ) ;
#78 = CARTESIAN_POINT ( 'NONE',  ( -90.00000000000000000, 0.0000000000000000000, 0.0000000000000000000 ) ) ;
#79 = DIRECTION ( 'NONE',  ( 0.0000000000000000000, 0.0000000000000000000, -1.000000000000000000 ) ) ;
#80 = DIRECTION ( 'NONE',  ( 0.0000000000000000000, 0.0000000000000000000, -1.000000000000000000 ) ) ;
#81 = DIRECTION ( 'NONE',  ( -1.000000000000000000, 0.0000000000000000000, 0.0000000000000000000 ) ) ;
#82 = DIRECTION ( 'NONE',  ( 1.000000000000000000, -0.0000000000000000000, -0.0000000000000000000 ) ) ;
#83 = CARTESIAN_POINT ( 'NONE',  ( -68.87603155543728000, 0.0000000000000000000, 0.0000000000000000000 ) ) ;
#84 = CARTESIAN_POINT ( 'NONE',  ( -75.00000000000000000, 0.0000000000000000000, 0.0000000000000000000 ) ) ;
#85 = DIRECTION ( 'NONE',  ( -1.000000000000000000, 0.0000000000000000000, 0.0000000000000000000 ) ) ;
#86 = DIRECTION ( 'NONE',  ( 1.000000000000000000, -0.0000000000000000000, -0.0000000000000000000 ) ) ;
#87 = DIRECTION ( 'NONE',  ( 0.0000000000000000000, 0.0000000000000000000, -1.000000000000000000 ) ) ;
#88 = DIRECTION ( 'NONE',  ( 1.000000000000000000, -0.0000000000000000000, -0.0000000000000000000 ) ) ;
#89 = CARTESIAN_POINT ( 'NONE',  ( -84.99619999999998800, 0.0000000000000000000, 0.0000000000000000000 ) ) ;
#90 = CARTESIAN_POINT ( 'NONE',  ( 0.0000000000000000000, 0.0000000000000000000, 0.0000000000000000000 ) ) ;
#91 = DIRECTION ( 'NONE',  ( 1.000000000000000000, -0.0000000000000000000, -0.0000000000000000000 ) ) ;
#92 = DIRECTION ( 'NONE',  ( 0.0000000000000000000, 0.0000000000000000000, -1.000000000000000000 ) ) ;
#93 = DIRECTION ( 'NONE',  ( 1.000000000000000000, -0.0000000000000000000, -0.0000000000000000000 ) ) ;
#94 = CARTESIAN_POINT ( 'NONE',  ( 0.0000000000000000000, 0.0000000000000000000, 0.0000000000000000000 ) ) ;
#95 = CARTESIAN_POINT ( 'NONE',  ( 0.0000000000000000000, 0.0000000000000000000, 0.0000000000000000000 ) ) ;
#96 = DIRECTION ( 'NONE',  ( 0.0000000000000000000, 0.0000000000000000000, -1.000000000000000000 ) ) ;
#97 = DIRECTION ( 'NONE',  ( 1.000000000000000000, -0.0000000000000000000, -0.0000000000000000000 ) ) ;
#98 = CARTESIAN_POINT ( 'NONE',  ( 0.0000000000000000000, 0.0000000000000000000, 0.0000000000000000000 ) ) ;
#99 = CARTESIAN_POINT ( 'NONE',  ( -14.99999999999999600, 0.0000000000000000000, 0.0000000000000000000 ) ) ;
#100 = CARTESIAN_POINT ( 'NONE',  ( -77.34081739754309100, 0.0000000000000000000, 0.0000000000000000000 ) ) ;
#101 = DIRECTION ( 'NONE',  ( 0.0000000000000000000, 0.0000000000000000000, -1.000000000000000000 ) ) ;
#102 = DIRECTION ( 'NONE',  ( 0.0000000000000000000, 0.0000000000000000000, -1.000000000000000000 ) ) ;
#103 = DIRECTION ( 'NONE',  ( 1.000000000000000000, -0.0000000000000000000, -0.0000000000000000000 ) ) ;
#104 = DIRECTION ( 'NONE',  ( 0.0000000000000000000, 0.0000000000000000000, -1.000000000000000000 ) ) ;
#105 = CARTESIAN_POINT ( 'NONE',  ( -12.65918260245691200, 0.0000000000000000000, 0.0000000000000000000 ) ) ;
#106 = PERSON_AND_ORGANIZATION_ROLE ( 'design_supplier' ) ;
#107 = PERSON_AND_ORGANIZATION_ROLE ( 'classification_officer' ) ;
#108 = APPROVAL_ROLE ( '' ) ;
#109 = DIRECTION ( 'NONE',  ( 1.000000000000000000, -0.0000000000000000000, -0.0000000000000000000 ) ) ;
#110 = DIRECTION ( 'NONE',  ( 0.0000000000000000000, 0.0000000000000000000, -1.000000000000000000 ) ) ;
#111 = DIRECTION ( 'NONE',  ( 1.000000000000000000, -0.0000000000000000000, -0.0000000000000000000 ) ) ;
#112 = CARTESIAN_POINT ( 'NONE',  ( -68.87603155543728000, 0.0000000000000000000, 0.0000000000000000000 ) ) ;
#113 = PERSON ( 'UNSPECIFIED', 'UNSPECIFIED', 'UNSPECIFIED', ('UNSPECIFIED'), ('UNSPECIFIED'), ('UNSPECIFIED') ) ;
#114 = PRODUCT ( 'HT0001', 'HT0001', '', ( #15 ) ) ;
#115 = PRODUCT_DEFINITION_SHAPE ( 'NONE', 'NONE',  #183 ) ;
#116 = DESIGN_CONTEXT ( 'detailed design', #12, 'design' ) ;
#117 = ADVANCED_FACE ( 'NONE', ( #286, #229 ), #306, .T. ) ;
#118 = ADVANCED_FACE ( 'NONE', ( #186, #309 ), #225, .T. ) ;
#119 = ADVANCED_FACE ( 'NONE', ( #310, #305 ), #224, .F. ) ;
#120 = ADVANCED_FACE ( 'NONE', ( #194, #283 ), #190, .F. ) ;
#121 = ADVANCED_FACE ( 'NONE', ( #221, #304 ), #195, .F. ) ;
#122 = ADVANCED_FACE ( 'NONE', ( #196, #289 ), #222, .F. ) ;
#123 = ADVANCED_FACE ( 'NONE', ( #204, #264 ), #260, .F. ) ;
#124 = ADVANCED_FACE ( 'NONE', ( #278, #307 ), #60, .T. ) ;
#125 = ADVANCED_FACE ( 'NONE', ( #324, #275 ), #270, .T. ) ;
#126 = ADVANCED_FACE ( 'NONE', ( #287, #267 ), #263, .F. ) ;
#127 = ADVANCED_FACE ( 'NONE', ( #269, #197 ), #25, .T. ) ;
#128 = ADVANCED_FACE ( 'NONE', ( #308, #220 ), #311, .F. ) ;
#129 = EDGE_CURVE ( 'NONE', #235, #235, #313, .T. ) ;
#130 = AXIS2_PLACEMENT_3D ( 'NONE', #99, #91, #65 ) ;
#131 = EDGE_CURVE ( 'NONE', #327, #327, #187, .T. ) ;
#132 = AXIS2_PLACEMENT_3D ( 'NONE', #112, #11, #35 ) ;
#133 = EDGE_CURVE ( 'NONE', #271, #271, #226, .T. ) ;
#134 = EDGE_CURVE ( 'NONE', #228, #228, #247, .T. ) ;
#135 = EDGE_CURVE ( 'NONE', #223, #223, #272, .T. ) ;
#136 = AXIS2_PLACEMENT_3D ( 'NONE', #29, #23, #3 ) ;
#137 = AXIS2_PLACEMENT_3D ( 'NONE', #73, #69, #76 ) ;
#138 = AXIS2_PLACEMENT_3D ( 'NONE', #36, #20, #18 ) ;
#139 = EDGE_CURVE ( 'NONE', #245, #245, #268, .T. ) ;
#140 = EDGE_CURVE ( 'NONE', #325, #325, #266, .T. ) ;
#141 = AXIS2_PLACEMENT_3D ( 'NONE', #105, #97, #96 ) ;
#142 = AXIS2_PLACEMENT_3D ( 'NONE', #90, #86, #92 ) ;
#143 = EDGE_CURVE ( 'NONE', #280, #280, #252, .T. ) ;
#144 = EDGE_CURVE ( 'NONE', #277, #277, #261, .T. ) ;
#145 = AXIS2_PLACEMENT_3D ( 'NONE', #95, #103, #102 ) ;
#146 = AXIS2_PLACEMENT_3D ( 'NONE', #39, #46, #34 ) ;
#147 = AXIS2_PLACEMENT_3D ( 'NONE', #77, #81, #75 ) ;
#148 = AXIS2_PLACEMENT_3D ( 'NONE', #83, #85, #79 ) ;
#149 = AXIS2_PLACEMENT_3D ( 'NONE', #100, #111, #110 ) ;
#150 = EDGE_CURVE ( 'NONE', #312, #312, #321, .T. ) ;
#151 = EDGE_CURVE ( 'NONE', #248, #248, #297, .T. ) ;
#152 = AXIS2_PLACEMENT_3D ( 'NONE', #94, #93, #104 ) ;
#153 = AXIS2_PLACEMENT_3D ( 'NONE', #67, #57, #56 ) ;
#154 = AXIS2_PLACEMENT_3D ( 'NONE', #98, #109, #101 ) ;
#155 = AXIS2_PLACEMENT_3D ( 'NONE', #53, #62, #58 ) ;
#156 = EDGE_CURVE ( 'NONE', #274, #274, #239, .T. ) ;
#157 = CC_DESIGN_PERSON_AND_ORGANIZATION_ASSIGNMENT ( #282, #13, ( #114 ) ) ;
#158 = CC_DESIGN_DATE_AND_TIME_ASSIGNMENT ( #284, #14, ( #182 ) ) ;
#159 = AXIS2_PLACEMENT_3D ( 'NONE', #45, #44, #43 ) ;
#160 = PRODUCT_DEFINITION_FORMATION_WITH_SPECIFIED_SOURCE ( 'ANY', '', #114, .NOT_KNOWN. ) ;
#161 = AXIS2_PLACEMENT_3D ( 'NONE', #27, #17, #16 ) ;
#162 = CC_DESIGN_PERSON_AND_ORGANIZATION_ASSIGNMENT ( #212, #31, ( #160 ) ) ;
#163 = CC_DESIGN_PERSON_AND_ORGANIZATION_ASSIGNMENT ( #241, #7, ( #183 ) ) ;
#164 = CC_DESIGN_PERSON_AND_ORGANIZATION_ASSIGNMENT ( #314, #107, ( #182 ) ) ;
#165 = CC_DESIGN_APPROVAL ( #173, ( #183 ) ) ;
#166 = CC_DESIGN_APPROVAL ( #179, ( #182 ) ) ;
#167 = CC_DESIGN_PERSON_AND_ORGANIZATION_ASSIGNMENT ( #315, #106, ( #160 ) ) ;
#168 = CC_DESIGN_SECURITY_CLASSIFICATION ( #182, ( #160 ) ) ;
#169 = AXIS2_PLACEMENT_3D ( 'NONE', #55, #54, #51 ) ;
#170 = CC_DESIGN_APPROVAL ( #175, ( #160 ) ) ;
#171 = AXIS2_PLACEMENT_3D ( 'NONE', #49, #48, #47 ) ;
#172 = AXIS2_PLACEMENT_3D ( 'NONE', #70, #68, #66 ) ;
#173 = APPROVAL ( #9, 'UNSPECIFIED' ) ;
#174 =( GEOMETRIC_REPRESENTATION_CONTEXT ( 3 ) GLOBAL_UNCERTAINTY_ASSIGNED_CONTEXT ( ( #329 ) ) GLOBAL_UNIT_ASSIGNED_CONTEXT ( ( #26, #24, #22 ) ) REPRESENTATION_CONTEXT ( 'NONE', 'WORKASPACE' ) );
#175 = APPROVAL ( #4, 'UNSPECIFIED' ) ;
#176 = AXIS2_PLACEMENT_3D ( 'NONE', #63, #61, #59 ) ;
#177 = AXIS2_PLACEMENT_3D ( 'NONE', #78, #74, #72 ) ;
#178 = AXIS2_PLACEMENT_3D ( 'NONE', #89, #88, #87 ) ;
#179 = APPROVAL ( #52, 'UNSPECIFIED' ) ;
#180 = PRODUCT_RELATED_PRODUCT_CATEGORY ( 'detail', '', ( #114 ) ) ;
#181 = CC_DESIGN_DATE_AND_TIME_ASSIGNMENT ( #234, #5, ( #183 ) ) ;
#182 = SECURITY_CLASSIFICATION ( '', '', #6 ) ;
#183 = PRODUCT_DEFINITION ( 'UNKNOWN', '', #160, #116 ) ;
#184 = AXIS2_PLACEMENT_3D ( 'NONE', #84, #82, #80 ) ;
#185 = LOCAL_TIME ( 9, 33, 49.00000000000000000, #295 ) ;
#186 = FACE_OUTER_BOUND ( 'NONE', #230, .T. ) ;
#187 = CIRCLE ( 'NONE', #130, 21.75509999999999500 ) ;
#188 = EDGE_LOOP ( 'NONE', ( #227 ) ) ;
#189 = ORIENTED_EDGE ( 'NONE', *, *, #144, .F. ) ;
#190 = CYLINDRICAL_SURFACE ( 'NONE', #142, 21.75509999999999900 ) ;
#191 = EDGE_LOOP ( 'NONE', ( #210 ) ) ;
#192 = DATE_AND_TIME ( #302, #294 ) ;
#193 = APPROVAL_DATE_TIME ( #198, #175 ) ;
#194 = FACE_OUTER_BOUND ( 'NONE', #191, .T. ) ;
#195 = TOROIDAL_SURFACE ( 'NONE', #148, -2.895600000000001700, 25.39999999999999500 ) ;
#196 = FACE_OUTER_BOUND ( 'NONE', #202, .T. ) ;
#197 = FACE_BOUND ( 'NONE', #251, .T. ) ;
#198 = DATE_AND_TIME ( #243, #299 ) ;
#199 = EDGE_LOOP ( 'NONE', ( #208 ) ) ;
#200 = ORIENTED_EDGE ( 'NONE', *, *, #156, .T. ) ;
#201 = ORIENTED_EDGE ( 'NONE', *, *, #133, .T. ) ;
#202 = EDGE_LOOP ( 'NONE', ( #249 ) ) ;
#203 = EDGE_LOOP ( 'NONE', ( #273 ) ) ;
#204 = FACE_OUTER_BOUND ( 'NONE', #258, .T. ) ;
#205 = ORIENTED_EDGE ( 'NONE', *, *, #131, .T. ) ;
#206 = ORIENTED_EDGE ( 'NONE', *, *, #135, .F. ) ;
#207 = EDGE_LOOP ( 'NONE', ( #285 ) ) ;
#208 = ORIENTED_EDGE ( 'NONE', *, *, #129, .F. ) ;
#209 = ORIENTED_EDGE ( 'NONE', *, *, #143, .F. ) ;
#210 = ORIENTED_EDGE ( 'NONE', *, *, #150, .T. ) ;
#211 = ORIENTED_EDGE ( 'NONE', *, *, #139, .T. ) ;
#212 = PERSON_AND_ORGANIZATION ( #113, #290 ) ;
#213 = PERSON_AND_ORGANIZATION ( #113, #290 ) ;
#214 = DATE_AND_TIME ( #323, #215 ) ;
#215 = LOCAL_TIME ( 9, 33, 49.00000000000000000, #320 ) ;
#216 = COORDINATED_UNIVERSAL_TIME_OFFSET ( 8, 0, .BEHIND. ) ;
#217 = CLOSED_SHELL ( 'NONE', ( #126, #120, #127, #118, #128, #117, #119, #121, #123, #124, #125, #122 ) ) ;
#218 = ORIENTED_EDGE ( 'NONE', *, *, #131, .F. ) ;
#219 = EDGE_LOOP ( 'NONE', ( #206 ) ) ;
#220 = FACE_OUTER_BOUND ( 'NONE', #293, .T. ) ;
#221 = FACE_OUTER_BOUND ( 'NONE', #207, .T. ) ;
#222 = TOROIDAL_SURFACE ( 'NONE', #147, 49.21250000000000600, 25.40000000000000600 ) ;
#223 = VERTEX_POINT ( 'NONE', #41 ) ;
#224 = CYLINDRICAL_SURFACE ( 'NONE', #152, 22.50439999999999300 ) ;
#225 = CYLINDRICAL_SURFACE ( 'NONE', #154, 24.99359999999999700 ) ;
#226 = CIRCLE ( 'NONE', #149, 23.81250000000000000 ) ;
#227 = ORIENTED_EDGE ( 'NONE', *, *, #151, .T. ) ;
#228 = VERTEX_POINT ( 'NONE', #42 ) ;
#229 = FACE_OUTER_BOUND ( 'NONE', #242, .T. ) ;
#230 = EDGE_LOOP ( 'NONE', ( #262 ) ) ;
#231 = EDGE_LOOP ( 'NONE', ( #200 ) ) ;
#232 = COORDINATED_UNIVERSAL_TIME_OFFSET ( 8, 0, .BEHIND. ) ;
#233 = APPROVAL_PERSON_ORGANIZATION ( #238, #173, #8 ) ;
#234 = DATE_AND_TIME ( #317, #256 ) ;
#235 = VERTEX_POINT ( 'NONE', #71 ) ;
#236 = APPROVAL_DATE_TIME ( #214, #179 ) ;
#237 = SHAPE_DEFINITION_REPRESENTATION ( #115, #328 ) ;
#238 = PERSON_AND_ORGANIZATION ( #113, #290 ) ;
#239 = CIRCLE ( 'NONE', #159, 24.99359999999999700 ) ;
#240 = ORIENTED_EDGE ( 'NONE', *, *, #129, .T. ) ;
#241 = PERSON_AND_ORGANIZATION ( #113, #290 ) ;
#242 = EDGE_LOOP ( 'NONE', ( #201 ) ) ;
#243 = CALENDAR_DATE ( 2014, 5, 8 ) ;
#244 = EDGE_LOOP ( 'NONE', ( #211 ) ) ;
#245 = VERTEX_POINT ( 'NONE', #40 ) ;
#246 = ORIENTED_EDGE ( 'NONE', *, *, #144, .T. ) ;
#247 = CIRCLE ( 'NONE', #141, 23.81250000000000000 ) ;
#248 = VERTEX_POINT ( 'NONE', #30 ) ;
#249 = ORIENTED_EDGE ( 'NONE', *, *, #133, .F. ) ;
#250 = EDGE_LOOP ( 'NONE', ( #326 ) ) ;
#251 = EDGE_LOOP ( 'NONE', ( #291 ) ) ;
#252 = CIRCLE ( 'NONE', #172, 24.99359999999999400 ) ;
#253 = APPROVAL_DATE_TIME ( #192, #173 ) ;
#254 = EDGE_LOOP ( 'NONE', ( #281 ) ) ;
#255 = EDGE_LOOP ( 'NONE', ( #218 ) ) ;
#256 = LOCAL_TIME ( 9, 33, 49.00000000000000000, #216 ) ;
#257 = ORIENTED_EDGE ( 'NONE', *, *, #156, .F. ) ;
#258 = EDGE_LOOP ( 'NONE', ( #189 ) ) ;
#259 = APPROVAL_PERSON_ORGANIZATION ( #213, #175, #2 ) ;
#260 = CYLINDRICAL_SURFACE ( 'NONE', #137, 21.75509999999999900 ) ;
#261 = CIRCLE ( 'NONE', #176, 21.75509999999999900 ) ;
#262 = ORIENTED_EDGE ( 'NONE', *, *, #143, .T. ) ;
#263 = TOROIDAL_SURFACE ( 'NONE', #146, -2.895600000000001700, 25.39999999999999500 ) ;
#264 = FACE_OUTER_BOUND ( 'NONE', #244, .T. ) ;
#265 = COORDINATED_UNIVERSAL_TIME_OFFSET ( 8, 0, .BEHIND. ) ;
#266 = CIRCLE ( 'NONE', #177, 24.99359999999999700 ) ;
#267 = FACE_OUTER_BOUND ( 'NONE', #300, .T. ) ;
#268 = CIRCLE ( 'NONE', #184, 21.75509999999999500 ) ;
#269 = FACE_OUTER_BOUND ( 'NONE', #231, .T. ) ;
#270 = CYLINDRICAL_SURFACE ( 'NONE', #155, 24.99359999999999700 ) ;
#271 = VERTEX_POINT ( 'NONE', #50 ) ;
#272 = CIRCLE ( 'NONE', #178, 24.99359999999999400 ) ;
#273 = ORIENTED_EDGE ( 'NONE', *, *, #140, .F. ) ;
#274 = VERTEX_POINT ( 'NONE', #28 ) ;
#275 = FACE_OUTER_BOUND ( 'NONE', #250, .T. ) ;
#276 = EDGE_LOOP ( 'NONE', ( #246 ) ) ;
#277 = VERTEX_POINT ( 'NONE', #33 ) ;
#278 = FACE_OUTER_BOUND ( 'NONE', #203, .T. ) ;
#279 = EDGE_LOOP ( 'NONE', ( #318 ) ) ;
#280 = VERTEX_POINT ( 'NONE', #37 ) ;
#281 = ORIENTED_EDGE ( 'NONE', *, *, #135, .T. ) ;
#282 = PERSON_AND_ORGANIZATION ( #113, #290 ) ;
#283 = FACE_OUTER_BOUND ( 'NONE', #255, .T. ) ;
#284 = DATE_AND_TIME ( #298, #185 ) ;
#285 = ORIENTED_EDGE ( 'NONE', *, *, #139, .F. ) ;
#286 = FACE_OUTER_BOUND ( 'NONE', #296, .T. ) ;
#287 = FACE_OUTER_BOUND ( 'NONE', #322, .T. ) ;
#288 = ORIENTED_EDGE ( 'NONE', *, *, #151, .F. ) ;
#289 = FACE_OUTER_BOUND ( 'NONE', #254, .T. ) ;
#290 = ORGANIZATION ( 'UNSPECIFIED', 'UNSPECIFIED', '' ) ;
#291 = ORIENTED_EDGE ( 'NONE', *, *, #150, .F. ) ;
#292 = ORIENTED_EDGE ( 'NONE', *, *, #134, .F. ) ;
#293 = EDGE_LOOP ( 'NONE', ( #209 ) ) ;
#294 = LOCAL_TIME ( 9, 33, 49.00000000000000000, #265 ) ;
#295 = COORDINATED_UNIVERSAL_TIME_OFFSET ( 8, 0, .BEHIND. ) ;
#296 = EDGE_LOOP ( 'NONE', ( #292 ) ) ;
#297 = CIRCLE ( 'NONE', #171, 22.50439999999999300 ) ;
#298 = CALENDAR_DATE ( 2014, 5, 8 ) ;
#299 = LOCAL_TIME ( 9, 33, 49.00000000000000000, #232 ) ;
#300 = EDGE_LOOP ( 'NONE', ( #288 ) ) ;
#301 = EDGE_LOOP ( 'NONE', ( #240 ) ) ;
#302 = CALENDAR_DATE ( 2014, 5, 8 ) ;
#303 = PERSON_AND_ORGANIZATION ( #113, #290 ) ;
#304 = FACE_OUTER_BOUND ( 'NONE', #301, .T. ) ;
#305 = FACE_OUTER_BOUND ( 'NONE', #199, .T. ) ;
#306 = CYLINDRICAL_SURFACE ( 'NONE', #145, 23.81250000000000000 ) ;
#307 = FACE_BOUND ( 'NONE', #276, .T. ) ;
#308 = FACE_OUTER_BOUND ( 'NONE', #279, .T. ) ;
#309 = FACE_OUTER_BOUND ( 'NONE', #316, .T. ) ;
#310 = FACE_OUTER_BOUND ( 'NONE', #188, .T. ) ;
#311 = TOROIDAL_SURFACE ( 'NONE', #136, 49.21250000000000600, 25.40000000000000600 ) ;
#312 = VERTEX_POINT ( 'NONE', #32 ) ;
#313 = CIRCLE ( 'NONE', #132, 22.50439999999999300 ) ;
#314 = PERSON_AND_ORGANIZATION ( #113, #290 ) ;
#315 = PERSON_AND_ORGANIZATION ( #113, #290 ) ;
#316 = EDGE_LOOP ( 'NONE', ( #257 ) ) ;
#317 = CALENDAR_DATE ( 2014, 5, 8 ) ;
#318 = ORIENTED_EDGE ( 'NONE', *, *, #134, .T. ) ;
#319 = APPROVAL_PERSON_ORGANIZATION ( #303, #179, #108 ) ;
#320 = COORDINATED_UNIVERSAL_TIME_OFFSET ( 8, 0, .BEHIND. ) ;
#321 = CIRCLE ( 'NONE', #169, 21.75509999999999900 ) ;
#322 = EDGE_LOOP ( 'NONE', ( #205 ) ) ;
#323 = CALENDAR_DATE ( 2014, 5, 8 ) ;
#324 = FACE_OUTER_BOUND ( 'NONE', #219, .T. ) ;
#325 = VERTEX_POINT ( 'NONE', #38 ) ;
#326 = ORIENTED_EDGE ( 'NONE', *, *, #140, .T. ) ;
#327 = VERTEX_POINT ( 'NONE', #64 ) ;
#328 = ADVANCED_BREP_SHAPE_REPRESENTATION ( 'HT0001', ( #1, #161 ), #174 ) ;
#329 = UNCERTAINTY_MEASURE_WITH_UNIT (LENGTH_MEASURE( 1.000000000000000100E-005 ), #26, 'distance_accuracy_value', 'NONE');
ENDSEC;
END-ISO-10303-21;
