ISO-10303-21;
HEADER;
FILE_DESCRIPTION (( 'STEP AP214' ),
    '1' );
FILE_NAME ('HT0013.STEP',
    '2017-09-13T20:35:37',
    ( 'Accounting' ),
    ( 'Microsoft' ),
    'SwSTEP 2.0',
    'SolidWorks 2017',
    '' );
FILE_SCHEMA (( 'AUTOMOTIVE_DESIGN' ));
ENDSEC;

DATA;
#1 = LINE ( 'NONE', #4, #138 ) ;
#2 = EDGE_CURVE ( 'NONE', #15, #134, #1, .T. ) ;
#3 = ADVANCED_FACE ( 'NONE', ( #208 ), #174, .T. ) ;
#4 = CARTESIAN_POINT ( 'NONE',  ( 1.048909983469708100E-016, 5.708661420000000300, 0.8565000000000001500 ) ) ;
#5 = ORIENTED_EDGE ( 'NONE', *, *, #11, .F. ) ;
#6 = STYLED_ITEM ( 'NONE', ( #77 ), #65 ) ;
#7 = CARTESIAN_POINT ( 'NONE',  ( 0.0000000000000000000, 5.708661420000000300, -0.9840000000000001000 ) ) ;
#8 = VERTEX_POINT ( 'NONE', #60 ) ;
#9 =( CONVERSION_BASED_UNIT ( 'INCH', #25 ) LENGTH_UNIT ( ) NAMED_UNIT ( #209 ) );
#10 = CARTESIAN_POINT ( 'NONE',  ( 0.0000000000000000000, 0.0000000000000000000, -0.8565000000000001500 ) ) ;
#11 = EDGE_CURVE ( 'NONE', #8, #149, #170, .T. ) ;
#12 = ORIENTED_EDGE ( 'NONE', *, *, #144, .F. ) ;
#13 = EDGE_LOOP ( 'NONE', ( #14, #219, #28, #90 ) ) ;
#14 = ORIENTED_EDGE ( 'NONE', *, *, #85, .F. ) ;
#15 = VERTEX_POINT ( 'NONE', #63 ) ;
#16 = MECHANICAL_DESIGN_GEOMETRIC_PRESENTATION_REPRESENTATION (  '', ( #214 ), #99 ) ;
#17 =( CONVERSION_BASED_UNIT ( 'INCH', #221 ) LENGTH_UNIT ( ) NAMED_UNIT ( #58 ) );
#18 = DIRECTION ( 'NONE',  ( 0.0000000000000000000, 0.0000000000000000000, 1.000000000000000000 ) ) ;
#19 = ORIENTED_EDGE ( 'NONE', *, *, #103, .T. ) ;
#20 =( NAMED_UNIT ( * ) PLANE_ANGLE_UNIT ( ) SI_UNIT ( $, .RADIAN. ) );
#21 = DIRECTION ( 'NONE',  ( 0.0000000000000000000, 0.0000000000000000000, 1.000000000000000000 ) ) ;
#22 = APPLICATION_CONTEXT ( 'automotive_design' ) ;
#23 = PRESENTATION_LAYER_ASSIGNMENT (  '', '', ( #214 ) ) ;
#24 = CYLINDRICAL_SURFACE ( 'NONE', #50, 0.8565000000000001500 ) ;
#25 = LENGTH_MEASURE_WITH_UNIT ( LENGTH_MEASURE( 0.02539999999999999900 ), #123 );
#26 = DIRECTION ( 'NONE',  ( -0.0000000000000000000, -1.000000000000000000, -0.0000000000000000000 ) ) ;
#27 = CARTESIAN_POINT ( 'NONE',  ( 0.0000000000000000000, 0.0000000000000000000, 0.0000000000000000000 ) ) ;
#28 = ORIENTED_EDGE ( 'NONE', *, *, #11, .T. ) ;
#29 = ORIENTED_EDGE ( 'NONE', *, *, #171, .F. ) ;
#30 =( NAMED_UNIT ( * ) SI_UNIT ( $, .STERADIAN. ) SOLID_ANGLE_UNIT ( ) );
#31 = CARTESIAN_POINT ( 'NONE',  ( 0.0000000000000000000, 5.708661420000000300, 0.0000000000000000000 ) ) ;
#32 = EDGE_LOOP ( 'NONE', ( #83, #152, #51, #202 ) ) ;
#33 = ORIENTED_EDGE ( 'NONE', *, *, #73, .F. ) ;
#34 = DIRECTION ( 'NONE',  ( -0.0000000000000000000, -1.000000000000000000, -0.0000000000000000000 ) ) ;
#35 = DIRECTION ( 'NONE',  ( 0.0000000000000000000, 0.0000000000000000000, 1.000000000000000000 ) ) ;
#36 = PRODUCT_CONTEXT ( 'NONE', #22, 'mechanical' ) ;
#37 = DIRECTION ( 'NONE',  ( 0.0000000000000000000, 0.0000000000000000000, 1.000000000000000000 ) ) ;
#38 = FACE_OUTER_BOUND ( 'NONE', #189, .T. ) ;
#39 = APPLICATION_PROTOCOL_DEFINITION ( 'draft international standard', 'automotive_design', 1998, #56 ) ;
#40 = VERTEX_POINT ( 'NONE', #10 ) ;
#41 = CYLINDRICAL_SURFACE ( 'NONE', #54, 0.9840000000000001000 ) ;
#42 = DIRECTION ( 'NONE',  ( -0.0000000000000000000, -1.000000000000000000, -0.0000000000000000000 ) ) ;
#43 = ORIENTED_EDGE ( 'NONE', *, *, #2, .F. ) ;
#44 = EDGE_CURVE ( 'NONE', #52, #8, #165, .T. ) ;
#45 = DIRECTION ( 'NONE',  ( 0.0000000000000000000, 1.000000000000000000, 0.0000000000000000000 ) ) ;
#46 = PRODUCT_DEFINITION_SHAPE ( 'NONE', 'NONE',  #93 ) ;
#47 = CARTESIAN_POINT ( 'NONE',  ( 0.0000000000000000000, 5.708661420000000300, 0.0000000000000000000 ) ) ;
#48 = EDGE_LOOP ( 'NONE', ( #169, #12 ) ) ;
#49 = SHAPE_DEFINITION_REPRESENTATION ( #46, #86 ) ;
#50 = AXIS2_PLACEMENT_3D ( 'NONE', #31, #34, #53 ) ;
#51 = ORIENTED_EDGE ( 'NONE', *, *, #103, .F. ) ;
#52 = VERTEX_POINT ( 'NONE', #157 ) ;
#53 = DIRECTION ( 'NONE',  ( 0.0000000000000000000, 0.0000000000000000000, -1.000000000000000000 ) ) ;
#54 = AXIS2_PLACEMENT_3D ( 'NONE', #197, #130, #203 ) ;
#55 = VECTOR ( 'NONE', #26, 39.37007874015748100 ) ;
#56 = APPLICATION_CONTEXT ( 'automotive_design' ) ;
#57 =( LENGTH_UNIT ( ) NAMED_UNIT ( * ) SI_UNIT ( $, .METRE. ) );
#58 = DIMENSIONAL_EXPONENTS ( 1.000000000000000000, 0.0000000000000000000, 0.0000000000000000000, 0.0000000000000000000, 0.0000000000000000000, 0.0000000000000000000, 0.0000000000000000000 ) ;
#59 = EDGE_CURVE ( 'NONE', #8, #52, #98, .T. ) ;
#60 = CARTESIAN_POINT ( 'NONE',  ( 0.0000000000000000000, 5.708661420000000300, -0.9840000000000001000 ) ) ;
#61 = UNCERTAINTY_MEASURE_WITH_UNIT (LENGTH_MEASURE( 1.000000000000000100E-005 ), #17, 'distance_accuracy_value', 'NONE');
#62 = ADVANCED_FACE ( 'NONE', ( #38 ), #217, .F. ) ;
#63 = CARTESIAN_POINT ( 'NONE',  ( 1.048909983469708100E-016, 5.708661420000000300, 0.8565000000000001500 ) ) ;
#64 = AXIS2_PLACEMENT_3D ( 'NONE', #27, #66, #69 ) ;
#65 = MANIFOLD_SOLID_BREP ( 'Boss-Extrude1', #67 ) ;
#66 = DIRECTION ( 'NONE',  ( 0.0000000000000000000, 1.000000000000000000, 0.0000000000000000000 ) ) ;
#67 = CLOSED_SHELL ( 'NONE', ( #173, #181, #191, #82, #3, #62 ) ) ;
#68 = EDGE_CURVE ( 'NONE', #119, #40, #211, .T. ) ;
#69 = DIRECTION ( 'NONE',  ( 0.0000000000000000000, 0.0000000000000000000, 1.000000000000000000 ) ) ;
#70 = DIRECTION ( 'NONE',  ( 0.0000000000000000000, 1.000000000000000000, 0.0000000000000000000 ) ) ;
#71 = PRESENTATION_STYLE_ASSIGNMENT (( #194 ) ) ;
#72 = DIRECTION ( 'NONE',  ( 0.0000000000000000000, 1.000000000000000000, 0.0000000000000000000 ) ) ;
#73 = EDGE_CURVE ( 'NONE', #183, #149, #204, .T. ) ;
#74 = DIRECTION ( 'NONE',  ( 0.0000000000000000000, 1.000000000000000000, 0.0000000000000000000 ) ) ;
#75 = DIRECTION ( 'NONE',  ( 0.0000000000000000000, 1.000000000000000000, 0.0000000000000000000 ) ) ;
#76 = PRODUCT ( 'HT0013', 'HT0013', '', ( #36 ) ) ;
#77 = PRESENTATION_STYLE_ASSIGNMENT (( #122 ) ) ;
#78 = DIRECTION ( 'NONE',  ( 0.0000000000000000000, 0.0000000000000000000, 1.000000000000000000 ) ) ;
#79 = EDGE_CURVE ( 'NONE', #119, #15, #196, .T. ) ;
#80 = CARTESIAN_POINT ( 'NONE',  ( 0.0000000000000000000, 5.708661420000000300, -0.8565000000000001500 ) ) ;
#81 = DIRECTION ( 'NONE',  ( 0.0000000000000000000, 0.0000000000000000000, 1.000000000000000000 ) ) ;
#82 = ADVANCED_FACE ( 'NONE', ( #200, #190 ), #101, .F. ) ;
#83 = ORIENTED_EDGE ( 'NONE', *, *, #79, .T. ) ;
#84 = CARTESIAN_POINT ( 'NONE',  ( 0.0000000000000000000, 5.708661420000000300, 0.0000000000000000000 ) ) ;
#85 = EDGE_CURVE ( 'NONE', #52, #183, #192, .T. ) ;
#86 = ADVANCED_BREP_SHAPE_REPRESENTATION ( 'HT0013', ( #65, #201 ), #178 ) ;
#87 = CARTESIAN_POINT ( 'NONE',  ( 0.0000000000000000000, 0.0000000000000000000, 0.0000000000000000000 ) ) ;
#88 = APPLICATION_PROTOCOL_DEFINITION ( 'draft international standard', 'automotive_design', 1998, #22 ) ;
#89 =( NAMED_UNIT ( * ) SI_UNIT ( $, .STERADIAN. ) SOLID_ANGLE_UNIT ( ) );
#90 = ORIENTED_EDGE ( 'NONE', *, *, #171, .T. ) ;
#91 = COLOUR_RGB ( '',0.7921568627450980000, 0.8196078431372548800, 0.9333333333333333500 ) ;
#92 = ORIENTED_EDGE ( 'NONE', *, *, #85, .T. ) ;
#93 = PRODUCT_DEFINITION ( 'UNKNOWN', '', #220, #163 ) ;
#94 = DIRECTION ( 'NONE',  ( 0.0000000000000000000, 1.000000000000000000, 0.0000000000000000000 ) ) ;
#95 = ORIENTED_EDGE ( 'NONE', *, *, #59, .T. ) ;
#96 = CARTESIAN_POINT ( 'NONE',  ( 0.0000000000000000000, 0.0000000000000000000, 0.0000000000000000000 ) ) ;
#97 = AXIS2_PLACEMENT_3D ( 'NONE', #179, #70, #21 ) ;
#98 = CIRCLE ( 'NONE', #115, 0.9840000000000001000 ) ;
#99 =( GEOMETRIC_REPRESENTATION_CONTEXT ( 3 ) GLOBAL_UNCERTAINTY_ASSIGNED_CONTEXT ( ( #218 ) ) GLOBAL_UNIT_ASSIGNED_CONTEXT ( ( #9, #205, #30 ) ) REPRESENTATION_CONTEXT ( 'NONE', 'WORKASPACE' ) );
#100 = ORIENTED_EDGE ( 'NONE', *, *, #216, .T. ) ;
#101 = PLANE ( 'NONE',  #199 ) ;
#102 = CARTESIAN_POINT ( 'NONE',  ( 0.0000000000000000000, 0.0000000000000000000, 0.0000000000000000000 ) ) ;
#103 = EDGE_CURVE ( 'NONE', #40, #134, #198, .T. ) ;
#104 = DIRECTION ( 'NONE',  ( 0.0000000000000000000, 1.000000000000000000, 0.0000000000000000000 ) ) ;
#105 = CARTESIAN_POINT ( 'NONE',  ( 0.0000000000000000000, 5.708661420000000300, 0.0000000000000000000 ) ) ;
#106 = DIRECTION ( 'NONE',  ( 0.0000000000000000000, 0.0000000000000000000, -1.000000000000000000 ) ) ;
#107 = DIRECTION ( 'NONE',  ( -0.0000000000000000000, -1.000000000000000000, -0.0000000000000000000 ) ) ;
#108 = DIRECTION ( 'NONE',  ( -0.0000000000000000000, -1.000000000000000000, -0.0000000000000000000 ) ) ;
#109 = DIRECTION ( 'NONE',  ( 0.0000000000000000000, 0.0000000000000000000, 1.000000000000000000 ) ) ;
#110 = DIRECTION ( 'NONE',  ( 0.0000000000000000000, 1.000000000000000000, 0.0000000000000000000 ) ) ;
#111 = EDGE_LOOP ( 'NONE', ( #158, #92, #212, #5 ) ) ;
#112 = CARTESIAN_POINT ( 'NONE',  ( 0.0000000000000000000, 5.708661420000000300, 0.0000000000000000000 ) ) ;
#113 = CARTESIAN_POINT ( 'NONE',  ( 0.0000000000000000000, 5.708661420000000300, 0.0000000000000000000 ) ) ;
#114 = DIRECTION ( 'NONE',  ( 0.0000000000000000000, 1.000000000000000000, 0.0000000000000000000 ) ) ;
#115 = AXIS2_PLACEMENT_3D ( 'NONE', #112, #110, #109 ) ;
#116 = UNCERTAINTY_MEASURE_WITH_UNIT (LENGTH_MEASURE( 1.000000000000000100E-005 ), #210, 'distance_accuracy_value', 'NONE');
#117 = CARTESIAN_POINT ( 'NONE',  ( 0.0000000000000000000, 0.0000000000000000000, 0.0000000000000000000 ) ) ;
#118 = LENGTH_MEASURE_WITH_UNIT ( LENGTH_MEASURE( 0.02539999999999999900 ), #57 );
#119 = VERTEX_POINT ( 'NONE', #80 ) ;
#120 =( LENGTH_UNIT ( ) NAMED_UNIT ( * ) SI_UNIT ( $, .METRE. ) );
#121 = FILL_AREA_STYLE_COLOUR ( '', #128 ) ;
#122 = SURFACE_STYLE_USAGE ( .BOTH. , #124 ) ;
#123 =( LENGTH_UNIT ( ) NAMED_UNIT ( * ) SI_UNIT ( $, .METRE. ) );
#124 = SURFACE_SIDE_STYLE ('',( #159 ) ) ;
#125 = DIRECTION ( 'NONE',  ( 1.000000000000000000, 0.0000000000000000000, 0.0000000000000000000 ) ) ;
#126 = FACE_OUTER_BOUND ( 'NONE', #184, .T. ) ;
#127 = FILL_AREA_STYLE ('',( #129 ) ) ;
#128 = COLOUR_RGB ( '',0.7921568627450980000, 0.8196078431372548800, 0.9333333333333333500 ) ;
#129 = FILL_AREA_STYLE_COLOUR ( '', #91 ) ;
#130 = DIRECTION ( 'NONE',  ( -0.0000000000000000000, -1.000000000000000000, -0.0000000000000000000 ) ) ;
#131 = MECHANICAL_DESIGN_GEOMETRIC_PRESENTATION_REPRESENTATION (  '', ( #6 ), #148 ) ;
#132 = CARTESIAN_POINT ( 'NONE',  ( 1.205052450360995600E-016, 5.708661420000000300, 0.9840000000000001000 ) ) ;
#133 = DIRECTION ( 'NONE',  ( 0.0000000000000000000, 0.0000000000000000000, -1.000000000000000000 ) ) ;
#134 = VERTEX_POINT ( 'NONE', #143 ) ;
#135 = ORIENTED_EDGE ( 'NONE', *, *, #68, .T. ) ;
#136 =( NAMED_UNIT ( * ) SI_UNIT ( $, .STERADIAN. ) SOLID_ANGLE_UNIT ( ) );
#137 =( NAMED_UNIT ( * ) PLANE_ANGLE_UNIT ( ) SI_UNIT ( $, .RADIAN. ) );
#138 = VECTOR ( 'NONE', #213, 39.37007874015748100 ) ;
#139 = CARTESIAN_POINT ( 'NONE',  ( 0.0000000000000000000, 5.708661420000000300, -0.8565000000000001500 ) ) ;
#140 = CARTESIAN_POINT ( 'NONE',  ( 0.0000000000000000000, 0.0000000000000000000, -0.9840000000000001000 ) ) ;
#141 = AXIS2_PLACEMENT_3D ( 'NONE', #47, #45, #37 ) ;
#142 = CIRCLE ( 'NONE', #97, 0.8565000000000001500 ) ;
#143 = CARTESIAN_POINT ( 'NONE',  ( 1.048909983469708100E-016, 0.0000000000000000000, 0.8565000000000001500 ) ) ;
#144 = EDGE_CURVE ( 'NONE', #15, #119, #175, .T. ) ;
#145 = CARTESIAN_POINT ( 'NONE',  ( 0.0000000000000000000, 5.708661420000000300, 0.0000000000000000000 ) ) ;
#146 = DIRECTION ( 'NONE',  ( 0.0000000000000000000, -0.0000000000000000000, 1.000000000000000000 ) ) ;
#147 = CARTESIAN_POINT ( 'NONE',  ( 0.0000000000000000000, 5.708661420000000300, 0.0000000000000000000 ) ) ;
#148 =( GEOMETRIC_REPRESENTATION_CONTEXT ( 3 ) GLOBAL_UNCERTAINTY_ASSIGNED_CONTEXT ( ( #61 ) ) GLOBAL_UNIT_ASSIGNED_CONTEXT ( ( #17, #137, #136 ) ) REPRESENTATION_CONTEXT ( 'NONE', 'WORKASPACE' ) );
#149 = VERTEX_POINT ( 'NONE', #140 ) ;
#150 = FACE_BOUND ( 'NONE', #48, .T. ) ;
#151 = DIRECTION ( 'NONE',  ( -0.0000000000000000000, -1.000000000000000000, -0.0000000000000000000 ) ) ;
#152 = ORIENTED_EDGE ( 'NONE', *, *, #2, .T. ) ;
#153 = AXIS2_PLACEMENT_3D ( 'NONE', #84, #72, #35 ) ;
#154 = FILL_AREA_STYLE ('',( #121 ) ) ;
#155 = ORIENTED_EDGE ( 'NONE', *, *, #44, .T. ) ;
#156 = AXIS2_PLACEMENT_3D ( 'NONE', #145, #74, #182 ) ;
#157 = CARTESIAN_POINT ( 'NONE',  ( 1.205052450360995600E-016, 5.708661420000000300, 0.9840000000000001000 ) ) ;
#158 = ORIENTED_EDGE ( 'NONE', *, *, #44, .F. ) ;
#159 = SURFACE_STYLE_FILL_AREA ( #127 ) ;
#160 = AXIS2_PLACEMENT_3D ( 'NONE', #147, #114, #193 ) ;
#161 = CARTESIAN_POINT ( 'NONE',  ( 1.205052450360995600E-016, 0.0000000000000000000, 0.9840000000000001000 ) ) ;
#162 = FACE_OUTER_BOUND ( 'NONE', #111, .T. ) ;
#163 = PRODUCT_DEFINITION_CONTEXT ( 'detailed design', #56, 'design' ) ;
#164 = SURFACE_SIDE_STYLE ('',( #168 ) ) ;
#165 = CIRCLE ( 'NONE', #156, 0.9840000000000001000 ) ;
#166 = AXIS2_PLACEMENT_3D ( 'NONE', #96, #94, #81 ) ;
#167 = PRODUCT_RELATED_PRODUCT_CATEGORY ( 'part', '', ( #76 ) ) ;
#168 = SURFACE_STYLE_FILL_AREA ( #154 ) ;
#169 = ORIENTED_EDGE ( 'NONE', *, *, #79, .F. ) ;
#170 = LINE ( 'NONE', #7, #55 ) ;
#171 = EDGE_CURVE ( 'NONE', #149, #183, #186, .T. ) ;
#172 = DIMENSIONAL_EXPONENTS ( 1.000000000000000000, 0.0000000000000000000, 0.0000000000000000000, 0.0000000000000000000, 0.0000000000000000000, 0.0000000000000000000, 0.0000000000000000000 ) ;
#173 = ADVANCED_FACE ( 'NONE', ( #177 ), #24, .F. ) ;
#174 = CYLINDRICAL_SURFACE ( 'NONE', #207, 0.9840000000000001000 ) ;
#175 = CIRCLE ( 'NONE', #141, 0.8565000000000001500 ) ;
#176 = EDGE_LOOP ( 'NONE', ( #29, #33 ) ) ;
#177 = FACE_OUTER_BOUND ( 'NONE', #32, .T. ) ;
#178 =( GEOMETRIC_REPRESENTATION_CONTEXT ( 3 ) GLOBAL_UNCERTAINTY_ASSIGNED_CONTEXT ( ( #116 ) ) GLOBAL_UNIT_ASSIGNED_CONTEXT ( ( #210, #20, #89 ) ) REPRESENTATION_CONTEXT ( 'NONE', 'WORKASPACE' ) );
#179 = CARTESIAN_POINT ( 'NONE',  ( 0.0000000000000000000, 0.0000000000000000000, 0.0000000000000000000 ) ) ;
#180 = ORIENTED_EDGE ( 'NONE', *, *, #144, .T. ) ;
#181 = ADVANCED_FACE ( 'NONE', ( #162 ), #41, .T. ) ;
#182 = DIRECTION ( 'NONE',  ( 0.0000000000000000000, 0.0000000000000000000, 1.000000000000000000 ) ) ;
#183 = VERTEX_POINT ( 'NONE', #161 ) ;
#184 = EDGE_LOOP ( 'NONE', ( #95, #155 ) ) ;
#185 = PRESENTATION_LAYER_ASSIGNMENT (  '', '', ( #6 ) ) ;
#186 = CIRCLE ( 'NONE', #64, 0.9840000000000001000 ) ;
#187 = PLANE ( 'NONE',  #160 ) ;
#188 = VECTOR ( 'NONE', #108, 39.37007874015748100 ) ;
#189 = EDGE_LOOP ( 'NONE', ( #43, #180, #135, #215 ) ) ;
#190 = FACE_BOUND ( 'NONE', #222, .T. ) ;
#191 = ADVANCED_FACE ( 'NONE', ( #126, #150 ), #187, .T. ) ;
#192 = LINE ( 'NONE', #132, #188 ) ;
#193 = DIRECTION ( 'NONE',  ( 0.0000000000000000000, -0.0000000000000000000, 1.000000000000000000 ) ) ;
#194 = SURFACE_STYLE_USAGE ( .BOTH. , #164 ) ;
#195 = AXIS2_PLACEMENT_3D ( 'NONE', #117, #104, #78 ) ;
#196 = CIRCLE ( 'NONE', #153, 0.8565000000000001500 ) ;
#197 = CARTESIAN_POINT ( 'NONE',  ( 0.0000000000000000000, 5.708661420000000300, 0.0000000000000000000 ) ) ;
#198 = CIRCLE ( 'NONE', #195, 0.8565000000000001500 ) ;
#199 = AXIS2_PLACEMENT_3D ( 'NONE', #87, #75, #146 ) ;
#200 = FACE_OUTER_BOUND ( 'NONE', #176, .T. ) ;
#201 = AXIS2_PLACEMENT_3D ( 'NONE', #102, #18, #125 ) ;
#202 = ORIENTED_EDGE ( 'NONE', *, *, #68, .F. ) ;
#203 = DIRECTION ( 'NONE',  ( 0.0000000000000000000, 0.0000000000000000000, -1.000000000000000000 ) ) ;
#204 = CIRCLE ( 'NONE', #166, 0.9840000000000001000 ) ;
#205 =( NAMED_UNIT ( * ) PLANE_ANGLE_UNIT ( ) SI_UNIT ( $, .RADIAN. ) );
#206 = VECTOR ( 'NONE', #151, 39.37007874015748100 ) ;
#207 = AXIS2_PLACEMENT_3D ( 'NONE', #105, #107, #106 ) ;
#208 = FACE_OUTER_BOUND ( 'NONE', #13, .T. ) ;
#209 = DIMENSIONAL_EXPONENTS ( 1.000000000000000000, 0.0000000000000000000, 0.0000000000000000000, 0.0000000000000000000, 0.0000000000000000000, 0.0000000000000000000, 0.0000000000000000000 ) ;
#210 =( CONVERSION_BASED_UNIT ( 'INCH', #118 ) LENGTH_UNIT ( ) NAMED_UNIT ( #172 ) );
#211 = LINE ( 'NONE', #139, #206 ) ;
#212 = ORIENTED_EDGE ( 'NONE', *, *, #73, .T. ) ;
#213 = DIRECTION ( 'NONE',  ( -0.0000000000000000000, -1.000000000000000000, -0.0000000000000000000 ) ) ;
#214 = STYLED_ITEM ( 'NONE', ( #71 ), #86 ) ;
#215 = ORIENTED_EDGE ( 'NONE', *, *, #216, .F. ) ;
#216 = EDGE_CURVE ( 'NONE', #134, #40, #142, .T. ) ;
#217 = CYLINDRICAL_SURFACE ( 'NONE', #223, 0.8565000000000001500 ) ;
#218 = UNCERTAINTY_MEASURE_WITH_UNIT (LENGTH_MEASURE( 1.000000000000000100E-005 ), #9, 'distance_accuracy_value', 'NONE');
#219 = ORIENTED_EDGE ( 'NONE', *, *, #59, .F. ) ;
#220 = PRODUCT_DEFINITION_FORMATION_WITH_SPECIFIED_SOURCE ( 'ANY', '', #76, .NOT_KNOWN. ) ;
#221 = LENGTH_MEASURE_WITH_UNIT ( LENGTH_MEASURE( 0.02539999999999999900 ), #120 );
#222 = EDGE_LOOP ( 'NONE', ( #19, #100 ) ) ;
#223 = AXIS2_PLACEMENT_3D ( 'NONE', #113, #42, #133 ) ;
ENDSEC;
END-ISO-10303-21;
